  0
SECTION
  2
HEADER
  9
$ACADVER
  1
AC1015
  9
$ACADMAINTVER
 70
     6
  9
$DWGCODEPAGE
  3
ANSI_1252
  9
$INSBASE
 10
0.0
 20
0.0
 30
0.0
  9
$EXTMIN
 10
5246.103319020014
 20
6040.727728998607
 30
0.0
  9
$EXTMAX
 10
6007.844895161425
 20
6538.646591839394
 30
11.26038941138711
  9
$LIMMIN
 10
0.0
 20
0.0
  9
$LIMMAX
 10
420.0
 20
297.0
  9
$ORTHOMODE
 70
     1
  9
$REGENMODE
 70
     1
  9
$FILLMODE
 70
     1
  9
$QTEXTMODE
 70
     0
  9
$MIRRTEXT
 70
     1
  9
$LTSCALE
 40
1.0
  9
$ATTMODE
 70
     1
  9
$TEXTSIZE
 40
2.5
  9
$TRACEWID
 40
1.0
  9
$TEXTSTYLE
  7
Stil2
  9
$CLAYER
  8
Achsen
  9
$CELTYPE
  6
ByLayer
  9
$CECOLOR
 62
   256
  9
$CELTSCALE
 40
1.0
  9
$DISPSILH
 70
     0
  9
$DIMSCALE
 40
1.0
  9
$DIMASZ
 40
5.0
  9
$DIMEXO
 40
0.0
  9
$DIMDLI
 40
0.0
  9
$DIMRND
 40
0.0
  9
$DIMDLE
 40
0.0
  9
$DIMEXE
 40
2.0
  9
$DIMTP
 40
0.0
  9
$DIMTM
 40
0.0
  9
$DIMTXT
 40
5.0
  9
$DIMCEN
 40
2.5
  9
$DIMTSZ
 40
0.0
  9
$DIMTOL
 70
     0
  9
$DIMLIM
 70
     0
  9
$DIMTIH
 70
     0
  9
$DIMTOH
 70
     0
  9
$DIMSE1
 70
     0
  9
$DIMSE2
 70
     0
  9
$DIMTAD
 70
     1
  9
$DIMZIN
 70
     8
  9
$DIMBLK
  1

  9
$DIMASO
 70
     1
  9
$DIMSHO
 70
     1
  9
$DIMPOST
  1

  9
$DIMAPOST
  1

  9
$DIMALT
 70
     0
  9
$DIMALTD
 70
     3
  9
$DIMALTF
 40
0.03937007874016
  9
$DIMLFAC
 40
1.0
  9
$DIMTOFL
 70
     1
  9
$DIMTVP
 40
0.0
  9
$DIMTIX
 70
     0
  9
$DIMSOXD
 70
     0
  9
$DIMSAH
 70
     0
  9
$DIMBLK1
  1

  9
$DIMBLK2
  1

  9
$DIMSTYLE
  2
Stil 5
  9
$DIMCLRD
 70
     7
  9
$DIMCLRE
 70
     7
  9
$DIMCLRT
 70
   256
  9
$DIMTFAC
 40
1.0
  9
$DIMGAP
 40
2.0
  9
$DIMJUST
 70
     0
  9
$DIMSD1
 70
     0
  9
$DIMSD2
 70
     0
  9
$DIMTOLJ
 70
     0
  9
$DIMTZIN
 70
     8
  9
$DIMALTZ
 70
     0
  9
$DIMALTTZ
 70
     0
  9
$DIMUPT
 70
     1
  9
$DIMDEC
 70
     2
  9
$DIMTDEC
 70
     2
  9
$DIMALTU
 70
     2
  9
$DIMALTTD
 70
     3
  9
$DIMTXSTY
  7
Stil1
  9
$DIMAUNIT
 70
     0
  9
$DIMADEC
 70
     1
  9
$DIMALTRND
 40
0.0
  9
$DIMAZIN
 70
     2
  9
$DIMDSEP
 70
    44
  9
$DIMATFIT
 70
     3
  9
$DIMFRAC
 70
     0
  9
$DIMLDRBLK
  1

  9
$DIMLUNIT
 70
     2
  9
$DIMLWD
 70
    25
  9
$DIMLWE
 70
    25
  9
$DIMTMOVE
 70
     0
  9
$LUNITS
 70
     2
  9
$LUPREC
 70
     4
  9
$SKETCHINC
 40
1.0
  9
$FILLETRAD
 40
0.0
  9
$AUNITS
 70
     0
  9
$AUPREC
 70
     0
  9
$MENU
  1
.
  9
$ELEVATION
 40
0.0
  9
$PELEVATION
 40
0.0
  9
$THICKNESS
 40
0.0
  9
$LIMCHECK
 70
     0
  9
$CHAMFERA
 40
10.0
  9
$CHAMFERB
 40
10.0
  9
$CHAMFERC
 40
20.0
  9
$CHAMFERD
 40
0.0
  9
$SKPOLY
 70
     0
  9
$TDCREATE
 40
2453808.513277604
  9
$TDUCREATE
 40
2453808.471610937
  9
$TDUPDATE
 40
2456967.367838704
  9
$TDUUPDATE
 40
2456967.326172037
  9
$TDINDWG
 40
0.7706177662
  9
$TDUSRTIMER
 40
2456967.32542618
  9
$USRTIMER
 70
     1
  9
$ANGBASE
 50
0.0
  9
$ANGDIR
 70
     0
  9
$PDMODE
 70
     0
  9
$PDSIZE
 40
0.0
  9
$PLINEWID
 40
0.0
  9
$SPLFRAME
 70
     0
  9
$SPLINETYPE
 70
     6
  9
$SPLINESEGS
 70
     8
  9
$HANDSEED
  5
7C9C
  9
$SURFTAB1
 70
     6
  9
$SURFTAB2
 70
     6
  9
$SURFTYPE
 70
     6
  9
$SURFU
 70
     6
  9
$SURFV
 70
     6
  9
$UCSBASE
  2

  9
$UCSNAME
  2

  9
$UCSORG
 10
0.0
 20
0.0
 30
0.0
  9
$UCSXDIR
 10
1.0
 20
0.0
 30
0.0
  9
$UCSYDIR
 10
0.0
 20
1.0
 30
0.0
  9
$UCSORTHOREF
  2

  9
$UCSORTHOVIEW
 70
     0
  9
$UCSORGTOP
 10
0.0
 20
0.0
 30
0.0
  9
$UCSORGBOTTOM
 10
0.0
 20
0.0
 30
0.0
  9
$UCSORGLEFT
 10
0.0
 20
0.0
 30
0.0
  9
$UCSORGRIGHT
 10
0.0
 20
0.0
 30
0.0
  9
$UCSORGFRONT
 10
0.0
 20
0.0
 30
0.0
  9
$UCSORGBACK
 10
0.0
 20
0.0
 30
0.0
  9
$PUCSBASE
  2

  9
$PUCSNAME
  2

  9
$PUCSORG
 10
0.0
 20
0.0
 30
0.0
  9
$PUCSXDIR
 10
1.0
 20
0.0
 30
0.0
  9
$PUCSYDIR
 10
0.0
 20
1.0
 30
0.0
  9
$PUCSORTHOREF
  2

  9
$PUCSORTHOVIEW
 70
     0
  9
$PUCSORGTOP
 10
0.0
 20
0.0
 30
0.0
  9
$PUCSORGBOTTOM
 10
0.0
 20
0.0
 30
0.0
  9
$PUCSORGLEFT
 10
0.0
 20
0.0
 30
0.0
  9
$PUCSORGRIGHT
 10
0.0
 20
0.0
 30
0.0
  9
$PUCSORGFRONT
 10
0.0
 20
0.0
 30
0.0
  9
$PUCSORGBACK
 10
0.0
 20
0.0
 30
0.0
  9
$USERI1
 70
     0
  9
$USERI2
 70
     0
  9
$USERI3
 70
     0
  9
$USERI4
 70
     0
  9
$USERI5
 70
     0
  9
$USERR1
 40
0.0
  9
$USERR2
 40
0.0
  9
$USERR3
 40
0.0
  9
$USERR4
 40
0.0
  9
$USERR5
 40
0.0
  9
$WORLDVIEW
 70
     1
  9
$SHADEDGE
 70
     3
  9
$SHADEDIF
 70
    70
  9
$TILEMODE
 70
     0
  9
$MAXACTVP
 70
    64
  9
$PINSBASE
 10
0.0
 20
0.0
 30
0.0
  9
$PLIMCHECK
 70
     0
  9
$PEXTMIN
 10
-6.691121460820909
 20
-21.88330769137039
 30
0.0
  9
$PEXTMAX
 10
413.3088785391791
 20
275.1166923086295
 30
0.0
  9
$PLIMMIN
 10
-5.793749809265136
 20
-17.79375076293945
  9
$PLIMMAX
 10
414.2062501907349
 20
279.2062492370605
  9
$UNITMODE
 70
     0
  9
$VISRETAIN
 70
     1
  9
$PLINEGEN
 70
     0
  9
$PSLTSCALE
 70
     0
  9
$TREEDEPTH
 70
  3020
  9
$CMLSTYLE
  2
Standard
  9
$CMLJUST
 70
     0
  9
$CMLSCALE
 40
20.0
  9
$PROXYGRAPHICS
 70
     1
  9
$MEASUREMENT
 70
     1
  9
$CELWEIGHT
370
    -1
  9
$ENDCAPS
280
     0
  9
$JOINSTYLE
280
     0
  9
$LWDISPLAY
290
     0
  9
$INSUNITS
 70
     4
  9
$HYPERLINKBASE
  1

  9
$STYLESHEET
  1

  9
$XEDIT
290
     1
  9
$CEPSNTYPE
380
     0
  9
$PSTYLEMODE
290
     1
  9
$FINGERPRINTGUID
  2
{0A48E88A-525A-4CAB-B467-202E6A9975EA}
  9
$VERSIONGUID
  2
{D1058BF3-073E-41A5-85A8-656F0287DB87}
  9
$EXTNAMES
290
     1
  9
$PSVPSCALE
 40
0.0
  9
$OLESTARTUP
290
     0
  0
ENDSEC
  0
SECTION
  2
CLASSES
  0
CLASS
  1
ACDBDICTIONARYWDFLT
  2
AcDbDictionaryWithDefault
  3
ObjectDBX Classes
 90
        0
280
     0
281
     0
  0
CLASS
  1
ACDBPLACEHOLDER
  2
AcDbPlaceHolder
  3
ObjectDBX Classes
 90
        0
280
     0
281
     0
  0
CLASS
  1
LAYOUT
  2
AcDbLayout
  3
ObjectDBX Classes
 90
        0
280
     0
281
     0
  0
CLASS
  1
DICTIONARYVAR
  2
AcDbDictionaryVar
  3
ObjectDBX Classes
 90
        0
280
     0
281
     0
  0
CLASS
  1
DIMASSOC
  2
AcDbDimAssoc
  3
"AcDbDimAssoc|Product Desc:     AcDim ARX App For Dimension|Company:          Autodesk, Inc.|WEB Address:      www.autodesk.com"
 90
        0
280
     0
281
     0
  0
CLASS
  1
TABLESTYLE
  2
AcDbTableStyle
  3
ObjectDBX Classes
 90
     4095
280
     0
281
     0
  0
CLASS
  1
SORTENTSTABLE
  2
AcDbSortentsTable
  3
ObjectDBX Classes
 90
        0
280
     0
281
     0
  0
CLASS
  1
SCALE
  2
AcDbScale
  3
ObjectDBX Classes
 90
     1153
280
     0
281
     0
  0
CLASS
  1
VISUALSTYLE
  2
AcDbVisualStyle
  3
ObjectDBX Classes
 90
     4095
280
     0
281
     0
  0
CLASS
  1
MATERIAL
  2
AcDbMaterial
  3
ObjectDBX Classes
 90
     1153
280
     0
281
     0
  0
CLASS
  1
MLEADERSTYLE
  2
AcDbMLeaderStyle
  3
ACDB_MLEADERSTYLE_CLASS
 90
     4095
280
     0
281
     0
  0
CLASS
  1
SUN
  2
AcDbSun
  3
SCENEOE
 90
     1153
280
     0
281
     0
  0
CLASS
  1
RASTERVARIABLES
  2
AcDbRasterVariables
  3
ISM
 90
        0
280
     0
281
     0
  0
ENDSEC
  0
SECTION
  2
TABLES
  0
TABLE
  2
VPORT
  5
8
330
0
100
AcDbSymbolTable
 70
     1
  0
VPORT
  5
7C21
330
8
100
AcDbSymbolTableRecord
100
AcDbViewportTableRecord
  2
*Active
 70
     0
 10
0.0
 20
0.0
 11
1.0
 21
1.0
 12
5649.100631956474
 22
6294.397935468246
 13
0.0
 23
0.0
 14
10.0
 24
10.0
 15
10.0
 25
10.0
 16
0.0
 26
0.0
 36
1.0
 17
0.0
 27
0.0
 37
0.0
 40
533.681911859285
 41
1.762081784386617
 42
50.0
 43
0.0
 44
0.0
 50
0.0
 51
0.0
 71
     0
 72
   100
 73
     1
 74
     3
 75
     0
 76
     0
 77
     0
 78
     0
281
     0
 65
     1
110
0.0
120
0.0
130
0.0
111
1.0
121
0.0
131
0.0
112
0.0
122
1.0
132
0.0
 79
     0
146
0.0
  0
ENDTAB
  0
TABLE
  2
LTYPE
  5
5
330
0
100
AcDbSymbolTable
 70
     4
  0
LTYPE
  5
14
330
5
100
AcDbSymbolTableRecord
100
AcDbLinetypeTableRecord
  2
ByBlock
 70
     0
  3

 72
    65
 73
     0
 40
0.0
  0
LTYPE
  5
15
330
5
100
AcDbSymbolTableRecord
100
AcDbLinetypeTableRecord
  2
ByLayer
 70
     0
  3

 72
    65
 73
     0
 40
0.0
  0
LTYPE
  5
16
330
5
100
AcDbSymbolTableRecord
100
AcDbLinetypeTableRecord
  2
Continuous
 70
     0
  3
Solid line
 72
    65
 73
     0
 40
0.0
  0
LTYPE
  5
242
330
5
100
AcDbSymbolTableRecord
100
AcDbLinetypeTableRecord
  2
VERDECKT
 70
     0
  3
Verdeckt __ __ __ __ __ __ __ __ __ __ __ __ __
 72
    65
 73
     2
 40
9.524999999999999
 49
6.349999999999999
 74
     0
 49
-3.174999999999999
 74
     0
  0
LTYPE
  5
245
330
5
100
AcDbSymbolTableRecord
100
AcDbLinetypeTableRecord
  2
STRICHPUNKT
 70
     0
  3
__ . __ . __ . __ . __ . __ . __ . __ . __ . __
 72
    65
 73
     4
 40
1.0
 49
0.5
 74
     0
 49
-0.25
 74
     0
 49
0.0
 74
     0
 49
-0.25
 74
     0
  0
LTYPE
  5
4DB0
330
5
100
AcDbSymbolTableRecord
100
AcDbLinetypeTableRecord
  2
STRICHPUNKTA
 70
     0
  3
__ . __ . __
 72
    65
 73
     4
 40
3.599999999999999
 49
2.399999999999999
 74
     0
 49
-0.6
 74
     0
 49
0.0
 74
     0
 49
-0.6
 74
     0
  0
ENDTAB
  0
TABLE
  2
LAYER
  5
2
102
{ACAD_XDICTIONARY
360
2B
102
}
330
0
100
AcDbSymbolTable
 70
     8
  0
LAYER
  5
10
330
2
100
AcDbSymbolTableRecord
100
AcDbLayerTableRecord
  2
0
 70
     0
 62
     7
  6
Continuous
370
    25
390
F
  0
LAYER
  5
36
330
2
100
AcDbSymbolTableRecord
100
AcDbLayerTableRecord
  2
Defpoints
 70
     0
 62
     7
  6
Continuous
290
     0
370
    -3
390
F
  0
LAYER
  5
37
330
2
100
AcDbSymbolTableRecord
100
AcDbLayerTableRecord
  2
RAHMEN07
 70
     0
 62
     5
  6
Continuous
370
    50
390
F
  0
LAYER
  5
38
330
2
100
AcDbSymbolTableRecord
100
AcDbLayerTableRecord
  2
RAHMEN025
 70
     0
 62
     7
  6
Continuous
370
    25
390
F
  0
LAYER
  5
39
330
2
100
AcDbSymbolTableRecord
100
AcDbLayerTableRecord
  2
RAHMEN05
 70
     0
 62
     6
  6
Continuous
370
    50
390
F
  0
LAYER
  5
4DB1
330
2
100
AcDbSymbolTableRecord
100
AcDbLayerTableRecord
  2
Ruettler
 70
     0
 62
    62
  6
Continuous
370
    35
390
F
  0
LAYER
  5
4DB2
330
2
100
AcDbSymbolTableRecord
100
AcDbLayerTableRecord
  2
DIN-Teile
 70
     0
 62
     7
  6
Continuous
370
    30
390
F
  0
LAYER
  5
7BF0
330
2
100
AcDbSymbolTableRecord
100
AcDbLayerTableRecord
  2
Achsen
 70
     0
 62
     7
  6
STRICHPUNKT
370
    18
390
F
  0
ENDTAB
  0
TABLE
  2
STYLE
  5
3
330
0
100
AcDbSymbolTable
 70
     5
  0
STYLE
  5
11
330
3
100
AcDbSymbolTableRecord
100
AcDbTextStyleTableRecord
  2
Standard
 70
     0
 40
0.0
 41
1.0
 50
0.0
 71
     0
 42
2.5
  3
txt
  4

  0
STYLE
  5
3B
330
3
100
AcDbSymbolTableRecord
100
AcDbTextStyleTableRecord
  2
Stil1
 70
     0
 40
0.0
 41
1.0
 50
0.0
 71
     0
 42
2.5
  3
romans.shx
  4
bigfont.shx
  0
STYLE
  5
3C
330
3
100
AcDbSymbolTableRecord
100
AcDbTextStyleTableRecord
  2
Stil2
 70
     0
 40
0.0
 41
1.0
 50
0.0
 71
     0
 42
2.5
  3
italict.shx
  4
bigfont.shx
  0
STYLE
  5
3D
330
3
100
AcDbSymbolTableRecord
100
AcDbTextStyleTableRecord
  2
ISO Proportional
 70
     0
 40
0.0
 41
1.0
 50
0.0
 71
     0
 42
2.5
  3
isocp.shx
  4

  0
STYLE
  5
3E
330
3
100
AcDbSymbolTableRecord
100
AcDbTextStyleTableRecord
  2
NORM
 70
     0
 40
0.0
 41
1.0
 50
0.0
 71
     0
 42
30.0
  3
SIMPLEX
  4

  0
ENDTAB
  0
TABLE
  2
VIEW
  5
6
330
0
100
AcDbSymbolTable
 70
     0
  0
ENDTAB
  0
TABLE
  2
UCS
  5
7
330
0
100
AcDbSymbolTable
 70
     0
  0
ENDTAB
  0
TABLE
  2
APPID
  5
9
330
0
100
AcDbSymbolTable
 70
     1
  0
APPID
  5
12
330
9
100
AcDbSymbolTableRecord
100
AcDbRegAppTableRecord
  2
ACAD
 70
     0
  0
ENDTAB
  0
TABLE
  2
DIMSTYLE
  5
A
330
0
100
AcDbSymbolTable
 70
     6
100
AcDbDimStyleTable
  0
DIMSTYLE
105
2254
330
A
100
AcDbSymbolTableRecord
100
AcDbDimStyleTableRecord
  2
Stil 5
 70
     0
 41
5.0
 42
0.0
 43
0.0
 44
2.0
 73
     0
 74
     0
 77
     1
 78
     8
 79
     2
140
5.0
141
2.5
143
0.03937007874016
147
2.0
171
     3
172
     1
176
     7
177
     7
271
     2
178
   256
179
     1
271
     2
272
     2
274
     3
278
    44
283
     0
284
     8
288
     1
340
3B
371
    25
372
    25
  0
DIMSTYLE
105
728F
330
A
100
AcDbSymbolTableRecord
100
AcDbDimStyleTableRecord
  2
Stil 1
 70
     0
 41
50.0
 42
0.0
 43
0.0
 44
20.0
 73
     0
 74
     0
 77
     1
 78
     8
 79
     2
140
50.0
141
2.5
143
0.03937007874016
147
15.0
171
     3
172
     1
176
     7
177
     7
271
     2
178
   256
179
     1
271
     2
272
     2
274
     3
278
    44
283
     0
284
     8
288
     1
340
3B
371
    25
372
    25
  0
DIMSTYLE
105
7290
330
A
100
AcDbSymbolTableRecord
100
AcDbDimStyleTableRecord
  2
Stil 4
 70
     0
 41
10.0
 42
0.0
 43
0.0
 44
8.0
 73
     0
 74
     0
 77
     1
 78
     8
 79
     2
140
10.0
141
2.5
143
0.03937007874016
147
5.0
171
     3
172
     1
176
     7
177
     7
271
     2
178
   256
179
     1
271
     2
272
     2
274
     3
278
    44
283
     0
284
     8
288
     1
340
3B
371
    25
372
    25
  0
DIMSTYLE
105
7291
330
A
100
AcDbSymbolTableRecord
100
AcDbDimStyleTableRecord
  2
Stil 3
 70
     0
 41
20.0
 42
0.0
 43
0.0
 44
10.0
 73
     0
 74
     0
 77
     1
 78
     8
 79
     2
140
20.0
141
2.5
143
0.03937007874016
147
10.0
171
     3
172
     1
176
     7
177
     7
271
     2
178
   256
179
     1
271
     2
272
     2
274
     3
278
    44
283
     0
284
     8
288
     1
340
3B
371
    25
372
    25
  0
DIMSTYLE
105
7292
330
A
100
AcDbSymbolTableRecord
100
AcDbDimStyleTableRecord
  2
Stil 2
 70
     0
 41
30.0
 42
0.0
 43
0.0
 44
20.0
 73
     0
 74
     0
 77
     1
 78
     8
 79
     2
140
30.0
141
2.5
143
0.03937007874016
147
15.0
171
     3
172
     1
176
     7
177
     7
271
     2
178
   256
179
     1
271
     2
272
     2
274
     3
278
    44
283
     0
284
     8
288
     1
340
3B
371
    25
372
    25
  0
DIMSTYLE
105
7820
330
A
100
AcDbSymbolTableRecord
100
AcDbDimStyleTableRecord
  2
Standard
 70
     0
178
     0
340
11
  0
ENDTAB
  0
TABLE
  2
BLOCK_RECORD
  5
1
330
0
100
AcDbSymbolTable
 70
     1
  0
BLOCK_RECORD
  5
1F
330
1
100
AcDbSymbolTableRecord
100
AcDbBlockTableRecord
  2
*Model_Space
340
22
  0
BLOCK_RECORD
  5
1B
330
1
100
AcDbSymbolTableRecord
100
AcDbBlockTableRecord
  2
*Paper_Space
340
1E
  0
ENDTAB
  0
ENDSEC
  0
SECTION
  2
BLOCKS
  0
BLOCK
  5
20
330
1F
100
AcDbEntity
  8
0
100
AcDbBlockBegin
  2
*Model_Space
 70
     0
 10
0.0
 20
0.0
 30
0.0
  3
*Model_Space
  1
*Model_Space
  0
ENDBLK
  5
21
330
1F
100
AcDbEntity
  8
0
100
AcDbBlockEnd
  0
BLOCK
  5
1C
330
1B
100
AcDbEntity
 67
     1
  8
0
100
AcDbBlockBegin
  2
*Paper_Space
 70
     0
 10
0.0
 20
0.0
 30
0.0
  3
*Paper_Space
  1
*Paper_Space
  0
ENDBLK
  5
1D
330
1B
100
AcDbEntity
 67
     1
  8
0
100
AcDbBlockEnd
  0
ENDSEC
  0
SECTION
  2
ENTITIES
  0
MTEXT
  5
5B09
330
1F
100
AcDbEntity
  8
0
100
AcDbMText
 10
6295.025897025948
 20
5120.615354699073
 30
0.0
 40
5.0
 41
0.0
 71
     1
 72
     1
  1

  7
NORM
 73
     1
 44
1.0
  0
MTEXT
  5
5B0B
330
1F
100
AcDbEntity
  8
0
100
AcDbMText
 10
6295.025897025948
 20
5120.615354699073
 30
0.0
 40
5.0
 41
0.0
 71
     1
 72
     1
  1

  7
NORM
 73
     1
 44
1.0
  0
MTEXT
  5
5D7E
330
1F
100
AcDbEntity
  8
0
100
AcDbMText
 10
7117.39356439892
 20
5038.867315101687
 30
0.0
 40
5.0
 41
0.0
 71
     1
 72
     1
  1

  7
NORM
 73
     1
 44
1.0
  0
LINE
  5
7532
330
1F
100
AcDbEntity
  8
Achsen
 48
10.0
100
AcDbLine
 10
5437.528255128842
 20
6087.48328461926
 30
0.0
 11
5437.528255128842
 21
6040.727728998607
 31
0.0
  0
LINE
  5
7533
330
1F
100
AcDbEntity
  8
Ruettler
100
AcDbLine
 10
5517.528255128857
 20
6064.105506808937
 30
0.0
 11
5517.528255128857
 21
6081.105506808937
 31
0.0
  0
LINE
  5
7534
330
1F
100
AcDbEntity
  8
Ruettler
100
AcDbLine
 10
5517.528255128849
 20
6064.105506808935
 30
0.0
 11
5517.528255128849
 21
6083.605506808936
 31
0.0
  0
CIRCLE
  5
7535
330
1F
100
AcDbEntity
  8
Ruettler
100
AcDbCircle
 10
5537.528255128856
 20
6064.105506808931
 30
0.0
 40
15.0
  0
LINE
  5
7536
330
1F
100
AcDbEntity
  8
Ruettler
100
AcDbLine
 10
5557.528255128857
 20
6064.105506808935
 30
0.0
 11
5557.528255128857
 21
6076.105506808936
 31
0.0
  0
LINE
  5
7537
330
1F
100
AcDbEntity
  8
Ruettler
100
AcDbLine
 10
5557.52825512885
 20
6064.105506808935
 30
0.0
 11
5557.52825512885
 21
6080.105506808935
 31
0.0
  0
LINE
  5
7538
330
1F
100
AcDbEntity
  8
Ruettler
100
AcDbLine
 10
5457.528255128856
 20
6064.105506808937
 30
0.0
 11
5457.528255128856
 21
6081.105506808935
 31
0.0
  0
CIRCLE
  5
7539
330
1F
100
AcDbEntity
  8
Ruettler
100
AcDbCircle
 10
5437.528255128849
 20
6064.10550680893
 30
0.0
 40
15.0
  0
LINE
  5
753A
330
1F
100
AcDbEntity
  8
Ruettler
100
AcDbLine
 10
5457.528255128849
 20
6064.105506808935
 30
0.0
 11
5457.528255128849
 21
6083.605506808936
 31
0.0
  0
LINE
  5
753B
330
1F
100
AcDbEntity
  8
Ruettler
100
AcDbLine
 10
5417.528255128849
 20
6064.105506808935
 30
0.0
 11
5417.528255128849
 21
6080.105506808935
 31
0.0
  0
LINE
  5
753C
330
1F
100
AcDbEntity
  8
Achsen
 48
10.0
100
AcDbLine
 10
5537.528255128849
 20
6087.483284619261
 30
0.0
 11
5537.528255128849
 21
6040.727728998609
 31
0.0
  0
LINE
  5
753D
330
1F
100
AcDbEntity
  8
Ruettler
100
AcDbLine
 10
5417.528255128857
 20
6064.105506808934
 30
0.0
 11
5417.528255128857
 21
6076.105506808933
 31
0.0
  0
CIRCLE
  5
753E
330
1F
100
AcDbEntity
  8
DIN-Teile
100
AcDbCircle
 10
5537.528255128849
 20
6064.105506808933
 30
0.0
 40
12.0
  0
LWPOLYLINE
  5
753F
330
1F
100
AcDbEntity
  8
DIN-Teile
100
AcDbPolyline
 90
        6
 70
     1
 43
0.0
 10
5537.528255128849
 20
6077.965506808933
 10
5525.52825512885
 20
6071.035506808932
 10
5525.52825512885
 20
6057.175506808932
 10
5537.528255128849
 20
6050.245506808933
 10
5549.528255128849
 20
6057.175506808932
 10
5549.528255128849
 20
6071.035506808932
  0
LWPOLYLINE
  5
7540
330
1F
100
AcDbEntity
  8
DIN-Teile
100
AcDbPolyline
 90
        6
 70
     1
 43
0.0
 10
5437.528255128842
 20
6077.965506808931
 10
5425.528255128842
 20
6071.035506808932
 10
5425.528255128842
 20
6057.175506808931
 10
5437.528255128842
 20
6050.245506808932
 10
5449.528255128842
 20
6057.175506808932
 10
5449.528255128842
 20
6071.035506808932
  0
CIRCLE
  5
7541
330
1F
100
AcDbEntity
  8
DIN-Teile
100
AcDbCircle
 10
5437.528255128842
 20
6064.105506808932
 30
0.0
 40
12.0
  0
LINE
  5
7542
330
1F
100
AcDbEntity
  8
Achsen
 48
10.0
100
AcDbLine
 10
5414.150477318517
 20
6064.105506808934
 30
0.0
 11
5460.906032939174
 21
6064.105506808934
 31
0.0
  0
LINE
  5
7543
330
1F
100
AcDbEntity
  8
Achsen
 48
10.0
100
AcDbLine
 10
5514.150477318525
 20
6064.105506808935
 30
0.0
 11
5560.906032939182
 21
6064.105506808935
 31
0.0
  0
ARC
  5
7544
330
1F
100
AcDbEntity
  8
Ruettler
100
AcDbCircle
 10
5537.528255128856
 20
6064.105506808935
 30
0.0
 40
20.0
100
AcDbArc
 50
180.0
 51
0.0
  0
ARC
  5
7545
330
1F
100
AcDbEntity
  8
Ruettler
100
AcDbCircle
 10
5437.528255128857
 20
6064.105506808934
 30
0.0
 40
20.0
100
AcDbArc
 50
180.0
 51
0.0
  0
LINE
  5
7546
330
1F
100
AcDbEntity
  8
Achsen
 48
10.0
100
AcDbLine
 10
5514.150477318525
 20
6244.105506808935
 30
0.0
 11
5560.906032939182
 21
6244.105506808935
 31
0.0
  0
LINE
  5
7547
330
1F
100
AcDbEntity
  8
Achsen
 48
10.0
100
AcDbLine
 10
5537.528255128849
 20
6267.483284619261
 30
0.0
 11
5537.528255128849
 21
6220.727728998609
 31
0.0
  0
LINE
  5
7548
330
1F
100
AcDbEntity
  8
Achsen
 48
10.0
100
AcDbLine
 10
5414.150477318517
 20
6244.105506808933
 30
0.0
 11
5460.906032939174
 21
6244.105506808933
 31
0.0
  0
LINE
  5
7549
330
1F
100
AcDbEntity
  8
Achsen
 48
10.0
100
AcDbLine
 10
5437.528255128842
 20
6267.48328461926
 30
0.0
 11
5437.528255128842
 21
6220.727728998607
 31
0.0
  0
ARC
  5
754A
330
1F
100
AcDbEntity
  8
Ruettler
100
AcDbCircle
 10
5537.528255128849
 20
6064.105506808935
 30
0.0
 40
20.0
100
AcDbArc
 50
53.1301023542602
 51
115.8419327631598
  0
LINE
  5
754B
330
1F
100
AcDbEntity
  8
Ruettler
100
AcDbLine
 10
5520.565003112309
 20
6083.605506808936
 30
0.0
 11
5524.799310382356
 21
6083.605506808936
 31
0.0
  0
ARC
  5
754C
330
1F
100
AcDbEntity
  8
Ruettler
100
AcDbCircle
 10
5515.528255128849
 20
6083.605506808936
 30
0.0
 40
2.0
100
AcDbArc
 50
0.0
 51
90.0
  0
LINE
  5
754D
330
1F
100
AcDbEntity
  8
Ruettler
100
AcDbLine
 10
5528.810457241775
 20
6082.105506808936
 30
0.0
 11
5524.799310382356
 21
6083.605506808936
 31
0.0
  0
LINE
  5
754E
330
1F
100
AcDbEntity
  8
Ruettler
100
AcDbLine
 10
5555.149894451687
 20
6080.105506808935
 30
0.0
 11
5549.528255128849
 21
6080.105506808935
 31
0.0
  0
LINE
  5
754F
330
1F
100
AcDbEntity
  8
Ruettler
100
AcDbLine
 10
5542.386935241311
 20
6084.715643970451
 30
0.0
 11
5566.528255128849
 21
6084.715643970451
 31
0.0
  0
ARC
  5
7550
330
1F
100
AcDbEntity
  8
Ruettler
100
AcDbCircle
 10
5533.668363002632
 20
6094.241500214233
 30
0.0
 40
12.91338216960784
100
AcDbArc
 50
311.5179943590263
 51
86.28049405322018
  0
LINE
  5
7551
330
1F
100
AcDbEntity
  8
Ruettler
100
AcDbLine
 10
5540.548443622627
 20
6100.415643970451
 30
0.0
 11
5542.386935241311
 21
6084.715643970451
 31
0.0
  0
LINE
  5
7552
330
1F
100
AcDbEntity
  8
Ruettler
100
AcDbLine
 10
5597.028255128856
 20
6076.105506808936
 30
0.0
 11
5557.528255128857
 21
6076.105506808936
 31
0.0
  0
LINE
  5
7553
330
1F
100
AcDbEntity
  8
Ruettler
100
AcDbLine
 10
5557.52825512885
 20
6076.105506808936
 30
0.0
 11
5566.528255128849
 21
6076.105506808936
 31
0.0
  0
ARC
  5
7554
330
1F
100
AcDbEntity
  8
Ruettler
100
AcDbCircle
 10
5559.528255128849
 20
6080.105506808935
 30
0.0
 40
2.0
100
AcDbArc
 50
90.0
 51
180.0
  0
LINE
  5
7555
330
1F
100
AcDbEntity
  8
Ruettler
100
AcDbLine
 10
5454.491507145396
 20
6083.605506808936
 30
0.0
 11
5450.25719987535
 21
6083.605506808936
 31
0.0
  0
LINE
  5
7556
330
1F
100
AcDbEntity
  8
Ruettler
100
AcDbLine
 10
5446.246053015932
 20
6082.105506808936
 30
0.0
 11
5450.25719987535
 21
6083.605506808936
 31
0.0
  0
ARC
  5
7557
330
1F
100
AcDbEntity
  8
Ruettler
100
AcDbCircle
 10
5437.528255128849
 20
6064.105506808935
 30
0.0
 40
20.0
100
AcDbArc
 50
64.15806723684017
 51
126.8698976457397
  0
ARC
  5
7558
330
1F
100
AcDbEntity
  8
Ruettler
100
AcDbCircle
 10
5459.528255128849
 20
6083.605506808936
 30
0.0
 40
2.0
100
AcDbArc
 50
90.0
 51
180.0
  0
LINE
  5
7559
330
1F
100
AcDbEntity
  8
Ruettler
100
AcDbLine
 10
5457.528255128849
 20
6079.605506808935
 30
0.0
 11
5517.528255128849
 21
6079.605506808935
 31
0.0
  0
LINE
  5
755A
330
1F
100
AcDbEntity
  8
Ruettler
100
AcDbLine
 10
5419.906615806017
 20
6080.105506808935
 30
0.0
 11
5425.528255128849
 21
6080.105506808935
 31
0.0
  0
ARC
  5
755B
330
1F
100
AcDbEntity
  8
Ruettler
100
AcDbCircle
 10
5415.528255128849
 20
6080.105506808935
 30
0.0
 40
2.0
100
AcDbArc
 50
0.0
 51
90.0
  0
LINE
  5
755C
330
1F
100
AcDbEntity
  8
Ruettler
100
AcDbLine
 10
5432.669575016394
 20
6084.715643970451
 30
0.0
 11
5408.52825512885
 21
6084.715643970451
 31
0.0
  0
LINE
  5
755D
330
1F
100
AcDbEntity
  8
Ruettler
100
AcDbLine
 10
5378.028255128857
 20
6076.105506808932
 30
0.0
 11
5417.528255128857
 21
6076.105506808932
 31
0.0
  0
LINE
  5
755F
330
1F
100
AcDbEntity
  8
Achsen
 48
10.0
100
AcDbLine
 10
5487.528255128849
 20
6240.605558928099
 30
0.0
 11
5487.528255128849
 21
6067.60545468977
 31
0.0
  0
ARC
  5
7560
330
1F
100
AcDbEntity
  8
Ruettler
100
AcDbCircle
 10
5539.471385549661
 20
6123.515643970452
 30
0.0
 40
7.0
100
AcDbArc
 50
231.2863134924902
 51
270.0
  0
LWPOLYLINE
  5
7561
330
1F
100
AcDbEntity
  8
Ruettler
100
AcDbPolyline
 90
       16
 70
     1
 43
0.0
 10
5543.641706711105
 20
6092.487944641799
 42
0.3307237274574907
 10
5543.735265826459
 20
6092.557429172289
 42
0.042223082595785
 10
5543.90613037543
 20
6093.363819104021
 42
0.0181652266025882
 10
5543.983651355529
 20
6094.241687029707
 42
0.0129384835661551
 10
5544.015658243401
 20
6095.478367109652
 42
0.0129384835661104
 10
5543.983651355529
 20
6096.715047189599
 42
0.0181652266025296
 10
5543.90613037543
 20
6097.592915115285
 42
0.042223082595785
 10
5543.735265826459
 20
6098.399305047016
 42
0.3307237274574907
 10
5543.641706711105
 20
6098.468789577506
 42
0.3307237274572734
 10
5543.548147595751
 20
6098.399305047016
 42
0.0422230825957779
 10
5543.377283046788
 20
6097.592915115285
 42
0.0181652266025579
 10
5543.299762066688
 20
6096.715047189599
 42
0.0129384835661163
 10
5543.26775517881
 20
6095.478367109652
 42
0.012938483566142
 10
5543.299762066688
 20
6094.241687029706
 42
0.0181652266025257
 10
5543.377283046788
 20
6093.363819104021
 42
0.0422230825957779
 10
5543.548147595751
 20
6092.557429172289
 42
0.3307237274572734
  0
LWPOLYLINE
  5
7562
330
1F
100
AcDbEntity
  8
Ruettler
100
AcDbPolyline
 90
       16
 70
     1
 43
0.0
 10
5543.604910745207
 20
6091.40631267866
 42
0.2600190587969858
 10
5543.902039585964
 20
6091.572035507381
 42
0.0758473423885251
 10
5544.331786651588
 20
6092.583268999467
 42
0.0362346977927098
 10
5544.545510810038
 20
6093.771221924106
 42
0.0263980514217031
 10
5544.632868510171
 20
6095.424692911478
 42
0.0263980514217182
 10
5544.545510810038
 20
6097.07816389885
 42
0.0362346977927683
 10
5544.331786651588
 20
6098.26611682349
 42
0.0758473423885556
 10
5543.902039585964
 20
6099.277350315577
 42
0.2600190587971416
 10
5543.604910745207
 20
6099.443073144296
 42
0.2600190587969859
 10
5543.30778190445
 20
6099.277350315577
 42
0.0758473423885353
 10
5542.878034838834
 20
6098.26611682349
 42
0.0362346977927353
 10
5542.664310680376
 20
6097.078163898851
 42
0.0263980514217353
 10
5542.576952980244
 20
6095.424692911478
 42
0.0263980514217401
 10
5542.664310680376
 20
6093.771221924106
 42
0.0362346977927692
 10
5542.878034838834
 20
6092.583268999467
 42
0.0758473423885144
 10
5543.30778190445
 20
6091.572035507381
 42
0.260019058796908
  0
ARC
  5
7563
330
1F
100
AcDbEntity
  8
Ruettler
100
AcDbCircle
 10
5533.52825512885
 20
6100.196313853284
 30
0.0
 40
7.0
100
AcDbArc
 50
0.0
 51
93.86378192860386
  0
LINE
  5
7564
330
1F
100
AcDbEntity
  8
Ruettler
100
AcDbLine
 10
5539.471385549661
 20
6116.515643970451
 30
0.0
 11
5566.528255128849
 21
6116.515643970451
 31
0.0
  0
LINE
  5
7565
330
1F
100
AcDbEntity
  8
Ruettler
100
AcDbLine
 10
5487.528255128849
 20
6104.105506808935
 30
0.0
 11
5533.056562814412
 21
6107.180403368783
 31
0.0
  0
ARC
  5
7566
330
1F
100
AcDbEntity
  8
Ruettler
100
AcDbCircle
 10
5525.004914531741
 20
6116.628847406047
 30
0.0
 40
10.0
100
AcDbArc
 50
269.3895838618857
 51
0.6104161381142605
  0
LINE
  5
7567
330
1F
100
AcDbEntity
  8
Ruettler
100
AcDbLine
 10
5537.528255128849
 20
6154.105506808935
 30
0.0
 11
5534.899213345919
 21
6115.178726384997
 31
0.0
  0
LWPOLYLINE
  5
7568
330
1F
100
AcDbEntity
  8
Ruettler
100
AcDbPolyline
 90
       16
 70
     1
 43
0.0
 10
5431.414803546601
 20
6092.487944641799
 42
-0.3307237274574907
 10
5431.32124443124
 20
6092.557429172289
 42
-0.042223082595785
 10
5431.150379882276
 20
6093.363819104021
 42
-0.0181652266025882
 10
5431.072858902176
 20
6094.241687029707
 42
-0.0129384835661551
 10
5431.040852014305
 20
6095.478367109652
 42
-0.0129384835661104
 10
5431.072858902176
 20
6096.715047189599
 42
-0.0181652266025296
 10
5431.150379882276
 20
6097.592915115285
 42
-0.042223082595785
 10
5431.32124443124
 20
6098.399305047016
 42
-0.3307237274574907
 10
5431.414803546601
 20
6098.468789577506
 42
-0.3307237274572734
 10
5431.508362661954
 20
6098.399305047016
 42
-0.0422230825957779
 10
5431.679227210918
 20
6097.592915115285
 42
-0.0181652266025579
 10
5431.756748191017
 20
6096.715047189599
 42
-0.0129384835661163
 10
5431.788755078897
 20
6095.478367109652
 42
-0.012938483566142
 10
5431.756748191017
 20
6094.241687029706
 42
-0.0181652266025257
 10
5431.679227210918
 20
6093.363819104021
 42
-0.0422230825957779
 10
5431.508362661954
 20
6092.557429172289
 42
-0.3307237274572734
  0
LWPOLYLINE
  5
7569
330
1F
100
AcDbEntity
  8
Ruettler
100
AcDbPolyline
 90
       16
 70
     1
 43
0.0
 10
5431.451599512499
 20
6091.40631267866
 42
-0.2600190587969858
 10
5431.154470671741
 20
6091.572035507381
 42
-0.0758473423885251
 10
5430.724723606118
 20
6092.583268999467
 42
-0.0362346977927098
 10
5430.510999447661
 20
6093.771221924106
 42
-0.0263980514217031
 10
5430.423641747528
 20
6095.424692911478
 42
-0.0263980514217182
 10
5430.510999447661
 20
6097.07816389885
 42
-0.0362346977927683
 10
5430.724723606118
 20
6098.26611682349
 42
-0.0758473423885556
 10
5431.154470671741
 20
6099.277350315577
 42
-0.2600190587971416
 10
5431.451599512499
 20
6099.443073144296
 42
-0.2600190587969859
 10
5431.748728353248
 20
6099.277350315577
 42
-0.0758473423885353
 10
5432.178475418872
 20
6098.26611682349
 42
-0.0362346977927353
 10
5432.392199577328
 20
6097.078163898851
 42
-0.0263980514217353
 10
5432.479557277462
 20
6095.424692911478
 42
-0.0263980514217401
 10
5432.392199577328
 20
6093.771221924106
 42
-0.0362346977927692
 10
5432.178475418872
 20
6092.583268999467
 42
-0.0758473423885144
 10
5431.748728353248
 20
6091.572035507381
 42
-0.260019058796908
  0
ARC
  5
756A
330
1F
100
AcDbEntity
  8
Ruettler
100
AcDbCircle
 10
5441.528255128849
 20
6100.196313853284
 30
0.0
 40
7.0
100
AcDbArc
 50
86.13621807139614
 51
180.0
  0
ARC
  5
756B
330
1F
100
AcDbEntity
  8
Ruettler
100
AcDbCircle
 10
5441.388147255072
 20
6094.241500214233
 30
0.0
 40
12.91338216960784
100
AcDbArc
 50
93.71950594677982
 51
228.4820056409736
  0
LINE
  5
756C
330
1F
100
AcDbEntity
  8
Ruettler
100
AcDbLine
 10
5434.508066635078
 20
6100.415643970451
 30
0.0
 11
5432.669575016394
 21
6084.715643970451
 31
0.0
  0
ARC
  5
756D
330
1F
100
AcDbEntity
  8
Ruettler
100
AcDbCircle
 10
5434.937443347795
 20
6133.105506808935
 30
0.0
 40
4.0
100
AcDbArc
 50
3.863781928655841
 51
90.0
  0
LINE
  5
756E
330
1F
100
AcDbEntity
  8
Ruettler
100
AcDbLine
 10
5423.528255128849
 20
6137.105506808936
 30
0.0
 11
5434.937443347795
 21
6137.105506808936
 31
0.0
  0
ARC
  5
756F
330
1F
100
AcDbEntity
  8
Ruettler
100
AcDbCircle
 10
5435.585124708044
 20
6123.515643970452
 30
0.0
 40
7.0
100
AcDbArc
 50
270.0
 51
308.7136865075098
  0
ARC
  5
7570
330
1F
100
AcDbEntity
  8
Ruettler
100
AcDbCircle
 10
5450.051595725965
 20
6116.628847406047
 30
0.0
 40
10.0
100
AcDbArc
 50
179.3895838618857
 51
270.6104161381142
  0
LINE
  5
7571
330
1F
100
AcDbEntity
  8
Ruettler
100
AcDbLine
 10
5435.585124708044
 20
6116.515643970451
 30
0.0
 11
5408.52825512885
 21
6116.515643970451
 31
0.0
  0
LINE
  5
7572
330
1F
100
AcDbEntity
  8
Ruettler
100
AcDbLine
 10
5487.528255128849
 20
6104.105506808935
 30
0.0
 11
5441.999947443286
 21
6107.180403368783
 31
0.0
  0
LINE
  5
7573
330
1F
100
AcDbEntity
  8
Ruettler
100
AcDbLine
 10
5437.528255128849
 20
6154.105506808933
 30
0.0
 11
5440.157296911786
 21
6115.178726384996
 31
0.0
  0
ARC
  5
7574
330
1F
100
AcDbEntity
  8
Ruettler
100
AcDbCircle
 10
5539.471385549661
 20
6184.695369647418
 30
0.0
 40
7.0
100
AcDbArc
 50
90.0
 51
128.7136865075098
  0
LINE
  5
7575
330
1F
100
AcDbEntity
  8
Ruettler
100
AcDbLine
 10
5535.480477255094
 20
6184.425831182022
 30
0.0
 11
5534.899213345919
 21
6193.032287232872
 31
0.0
  0
LINE
  5
7576
330
1F
100
AcDbEntity
  8
Ruettler
100
AcDbLine
 10
5539.471385549661
 20
6191.695369647419
 30
0.0
 11
5566.528255128849
 21
6191.695369647419
 31
0.0
  0
LINE
  5
7577
330
1F
100
AcDbEntity
  8
Ruettler
100
AcDbLine
 10
5537.528255128849
 20
6154.105506808935
 30
0.0
 11
5535.480477255094
 21
6184.425831182022
 31
0.0
  0
LINE
  5
7578
330
1F
100
AcDbEntity
  8
Ruettler
100
AcDbLine
 10
5487.528255128849
 20
6204.105506808936
 30
0.0
 11
5533.056562814412
 21
6201.030610249087
 31
0.0
  0
ARC
  5
7579
330
1F
100
AcDbEntity
  8
Ruettler
100
AcDbCircle
 10
5525.004914531741
 20
6191.582166211822
 30
0.0
 40
10.0
100
AcDbArc
 50
359.3895838618857
 51
90.61041613811425
  0
ARC
  5
757A
330
1F
100
AcDbEntity
  8
Ruettler
100
AcDbCircle
 10
5533.668363002632
 20
6213.969513403636
 30
0.0
 40
12.91338216960784
100
AcDbArc
 50
273.7195059467798
 51
48.48200564097365
  0
ARC
  5
757B
330
1F
100
AcDbEntity
  8
Ruettler
100
AcDbCircle
 10
5533.52825512885
 20
6208.014699764586
 30
0.0
 40
7.0
100
AcDbArc
 50
266.1362180713961
 51
0.0
  0
LINE
  5
757C
330
1F
100
AcDbEntity
  8
Ruettler
100
AcDbLine
 10
5566.528255128849
 20
6232.105506808935
 30
0.0
 11
5566.528255128849
 21
6076.105506808936
 31
0.0
  0
LINE
  5
757D
330
1F
100
AcDbEntity
  8
Ruettler
100
AcDbLine
 10
5597.028255128856
 20
6232.105506808935
 30
0.0
 11
5557.528255128857
 21
6232.105506808935
 31
0.0
  0
LINE
  5
757E
330
1F
100
AcDbEntity
  8
Ruettler
100
AcDbLine
 10
5557.528255128857
 20
6244.105506808935
 30
0.0
 11
5557.528255128857
 21
6232.105506808935
 31
0.0
  0
LINE
  5
757F
330
1F
100
AcDbEntity
  8
Ruettler
100
AcDbLine
 10
5557.52825512885
 20
6232.105506808935
 30
0.0
 11
5566.528255128849
 21
6232.105506808935
 31
0.0
  0
ARC
  5
7580
330
1F
100
AcDbEntity
  8
Ruettler
100
AcDbCircle
 10
5559.528255128849
 20
6228.105506808936
 30
0.0
 40
2.0
100
AcDbArc
 50
180.0
 51
270.0
  0
LINE
  5
7581
330
1F
100
AcDbEntity
  8
Ruettler
100
AcDbLine
 10
5555.149894451687
 20
6228.105506808936
 30
0.0
 11
5549.528255128849
 21
6228.105506808936
 31
0.0
  0
ARC
  5
7582
330
1F
100
AcDbEntity
  8
Ruettler
100
AcDbCircle
 10
5537.528255128849
 20
6244.105506808935
 30
0.0
 40
20.0
100
AcDbArc
 50
244.1580672368401
 51
306.8698976457397
  0
LINE
  5
7583
330
1F
100
AcDbEntity
  8
Ruettler
100
AcDbLine
 10
5542.386935241311
 20
6223.495369647419
 30
0.0
 11
5566.528255128849
 21
6223.495369647419
 31
0.0
  0
LINE
  5
7584
330
1F
100
AcDbEntity
  8
Ruettler
100
AcDbLine
 10
5557.52825512885
 20
6244.105506808935
 30
0.0
 11
5557.52825512885
 21
6228.105506808936
 31
0.0
  0
CIRCLE
  5
7585
330
1F
100
AcDbEntity
  8
Ruettler
100
AcDbCircle
 10
5537.528255128856
 20
6244.105506808935
 30
0.0
 40
15.0
  0
LINE
  5
7586
330
1F
100
AcDbEntity
  8
Ruettler
100
AcDbLine
 10
5517.528255128857
 20
6244.105506808935
 30
0.0
 11
5517.528255128857
 21
6227.105506808935
 31
0.0
  0
LWPOLYLINE
  5
7587
330
1F
100
AcDbEntity
  8
DIN-Teile
100
AcDbPolyline
 90
        6
 70
     1
 43
0.0
 10
5537.528255128849
 20
6230.245506808933
 10
5525.52825512885
 20
6237.175506808933
 10
5525.52825512885
 20
6251.035506808933
 10
5537.528255128849
 20
6257.965506808933
 10
5549.528255128849
 20
6251.035506808933
 10
5549.528255128849
 20
6237.175506808933
  0
CIRCLE
  5
7588
330
1F
100
AcDbEntity
  8
DIN-Teile
100
AcDbCircle
 10
5537.528255128849
 20
6244.105506808932
 30
0.0
 40
12.0
  0
LWPOLYLINE
  5
7589
330
1F
100
AcDbEntity
  8
Ruettler
100
AcDbPolyline
 90
       16
 70
     1
 43
0.0
 10
5543.604910745207
 20
6216.80470093921
 42
-0.2600190587969858
 10
5543.902039585964
 20
6216.638978110489
 42
-0.0758473423885251
 10
5544.331786651588
 20
6215.627744618403
 42
-0.0362346977927098
 10
5544.545510810038
 20
6214.439791693763
 42
-0.0263980514217031
 10
5544.632868510171
 20
6212.786320706391
 42
-0.0263980514217182
 10
5544.545510810038
 20
6211.13284971902
 42
-0.0362346977927683
 10
5544.331786651588
 20
6209.94489679438
 42
-0.0758473423885556
 10
5543.902039585964
 20
6208.933663302293
 42
-0.2600190587971416
 10
5543.604910745207
 20
6208.767940473574
 42
-0.2600190587969859
 10
5543.30778190445
 20
6208.933663302293
 42
-0.0758473423885353
 10
5542.878034838834
 20
6209.94489679438
 42
-0.0362346977927353
 10
5542.664310680376
 20
6211.132849719019
 42
-0.0263980514217353
 10
5542.576952980244
 20
6212.786320706391
 42
-0.0263980514217401
 10
5542.664310680376
 20
6214.439791693763
 42
-0.0362346977927692
 10
5542.878034838834
 20
6215.627744618403
 42
-0.0758473423885144
 10
5543.30778190445
 20
6216.638978110489
 42
-0.260019058796908
  0
LWPOLYLINE
  5
758A
330
1F
100
AcDbEntity
  8
Ruettler
100
AcDbPolyline
 90
       16
 70
     1
 43
0.0
 10
5543.641706711105
 20
6215.723068976071
 42
-0.3307237274574907
 10
5543.735265826459
 20
6215.65358444558
 42
-0.042223082595785
 10
5543.90613037543
 20
6214.847194513849
 42
-0.0181652266025882
 10
5543.983651355529
 20
6213.969326588163
 42
-0.0129384835661551
 10
5544.015658243401
 20
6212.732646508217
 42
-0.0129384835661104
 10
5543.983651355529
 20
6211.49596642827
 42
-0.0181652266025296
 10
5543.90613037543
 20
6210.618098502585
 42
-0.042223082595785
 10
5543.735265826459
 20
6209.811708570853
 42
-0.3307237274574907
 10
5543.641706711105
 20
6209.742224040363
 42
-0.3307237274572734
 10
5543.548147595751
 20
6209.811708570853
 42
-0.0422230825957779
 10
5543.377283046788
 20
6210.618098502585
 42
-0.0181652266025579
 10
5543.299762066688
 20
6211.49596642827
 42
-0.0129384835661163
 10
5543.26775517881
 20
6212.732646508217
 42
-0.012938483566142
 10
5543.299762066688
 20
6213.969326588165
 42
-0.0181652266025257
 10
5543.377283046788
 20
6214.847194513849
 42
-0.0422230825957779
 10
5543.548147595751
 20
6215.65358444558
 42
-0.3307237274572734
  0
LINE
  5
758B
330
1F
100
AcDbEntity
  8
Ruettler
100
AcDbLine
 10
5540.548443622627
 20
6207.795369647419
 30
0.0
 11
5542.386935241311
 21
6223.495369647419
 31
0.0
  0
LINE
  5
758C
330
1F
100
AcDbEntity
  8
Ruettler
100
AcDbLine
 10
5520.565003112309
 20
6224.605506808935
 30
0.0
 11
5524.799310382356
 21
6224.605506808935
 31
0.0
  0
ARC
  5
758D
330
1F
100
AcDbEntity
  8
Ruettler
100
AcDbCircle
 10
5515.528255128849
 20
6224.605506808935
 30
0.0
 40
2.0
100
AcDbArc
 50
270.0
 51
0.0
  0
LINE
  5
758E
330
1F
100
AcDbEntity
  8
Ruettler
100
AcDbLine
 10
5517.528255128849
 20
6244.105506808935
 30
0.0
 11
5517.528255128849
 21
6224.605506808935
 31
0.0
  0
LINE
  5
758F
330
1F
100
AcDbEntity
  8
Ruettler
100
AcDbLine
 10
5528.810457241775
 20
6226.105506808935
 30
0.0
 11
5524.799310382356
 21
6224.605506808935
 31
0.0
  0
LINE
  5
7590
330
1F
100
AcDbEntity
  8
Ruettler
100
AcDbLine
 10
5419.906615806017
 20
6228.105506808936
 30
0.0
 11
5425.528255128849
 21
6228.105506808936
 31
0.0
  0
LINE
  5
7591
330
1F
100
AcDbEntity
  8
Ruettler
100
AcDbLine
 10
5446.246053015932
 20
6226.105506808935
 30
0.0
 11
5450.25719987535
 21
6224.605506808935
 31
0.0
  0
ARC
  5
7592
330
1F
100
AcDbEntity
  8
Ruettler
100
AcDbCircle
 10
5437.528255128849
 20
6244.105506808935
 30
0.0
 40
20.0
100
AcDbArc
 50
233.1301023542601
 51
295.8419327631598
  0
LINE
  5
7593
330
1F
100
AcDbEntity
  8
Ruettler
100
AcDbLine
 10
5454.491507145396
 20
6224.605506808935
 30
0.0
 11
5450.25719987535
 21
6224.605506808935
 31
0.0
  0
ARC
  5
7594
330
1F
100
AcDbEntity
  8
Ruettler
100
AcDbCircle
 10
5459.528255128849
 20
6224.605506808935
 30
0.0
 40
2.0
100
AcDbArc
 50
180.0
 51
270.0
  0
LINE
  5
7595
330
1F
100
AcDbEntity
  8
Ruettler
100
AcDbLine
 10
5457.528255128849
 20
6244.105506808935
 30
0.0
 11
5457.528255128849
 21
6224.605506808935
 31
0.0
  0
LINE
  5
7596
330
1F
100
AcDbEntity
  8
Ruettler
100
AcDbLine
 10
5457.528255128849
 20
6228.605506808936
 30
0.0
 11
5517.528255128849
 21
6228.605506808936
 31
0.0
  0
LINE
  5
7597
330
1F
100
AcDbEntity
  8
Ruettler
100
AcDbLine
 10
5378.02825512885
 20
6232.105506808932
 30
0.0
 11
5417.528255128849
 21
6232.105506808933
 31
0.0
  0
LINE
  5
7598
330
1F
100
AcDbEntity
  8
Ruettler
100
AcDbLine
 10
5417.528255128849
 20
6244.105506808935
 30
0.0
 11
5417.528255128849
 21
6228.105506808936
 31
0.0
  0
ARC
  5
7599
330
1F
100
AcDbEntity
  8
Ruettler
100
AcDbCircle
 10
5415.528255128849
 20
6228.105506808936
 30
0.0
 40
2.0
100
AcDbArc
 50
270.0
 51
0.0
  0
LINE
  5
759A
330
1F
100
AcDbEntity
  8
Ruettler
100
AcDbLine
 10
5432.669575016394
 20
6223.495369647419
 30
0.0
 11
5408.52825512885
 21
6223.495369647419
 31
0.0
  0
LWPOLYLINE
  5
759B
330
1F
100
AcDbEntity
  8
Ruettler
100
AcDbPolyline
 90
       16
 70
     1
 43
0.0
 10
5431.414803546601
 20
6215.723068976071
 42
0.3307237274574907
 10
5431.32124443124
 20
6215.65358444558
 42
0.042223082595785
 10
5431.150379882276
 20
6214.847194513849
 42
0.0181652266025882
 10
5431.072858902176
 20
6213.969326588163
 42
0.0129384835661551
 10
5431.040852014305
 20
6212.732646508217
 42
0.0129384835661104
 10
5431.072858902176
 20
6211.49596642827
 42
0.0181652266025296
 10
5431.150379882276
 20
6210.618098502585
 42
0.042223082595785
 10
5431.32124443124
 20
6209.811708570853
 42
0.3307237274574907
 10
5431.414803546601
 20
6209.742224040363
 42
0.3307237274572734
 10
5431.508362661954
 20
6209.811708570853
 42
0.0422230825957779
 10
5431.679227210918
 20
6210.618098502585
 42
0.0181652266025579
 10
5431.756748191017
 20
6211.49596642827
 42
0.0129384835661163
 10
5431.788755078897
 20
6212.732646508217
 42
0.012938483566142
 10
5431.756748191017
 20
6213.969326588165
 42
0.0181652266025257
 10
5431.679227210918
 20
6214.847194513849
 42
0.0422230825957779
 10
5431.508362661954
 20
6215.65358444558
 42
0.3307237274572734
  0
LWPOLYLINE
  5
759C
330
1F
100
AcDbEntity
  8
Ruettler
100
AcDbPolyline
 90
       16
 70
     1
 43
0.0
 10
5431.451599512499
 20
6216.80470093921
 42
0.2600190587969858
 10
5431.154470671741
 20
6216.638978110489
 42
0.0758473423885251
 10
5430.724723606118
 20
6215.627744618403
 42
0.0362346977927098
 10
5430.510999447661
 20
6214.439791693763
 42
0.0263980514217031
 10
5430.423641747528
 20
6212.786320706391
 42
0.0263980514217182
 10
5430.510999447661
 20
6211.13284971902
 42
0.0362346977927683
 10
5430.724723606118
 20
6209.94489679438
 42
0.0758473423885556
 10
5431.154470671741
 20
6208.933663302293
 42
0.2600190587971416
 10
5431.451599512499
 20
6208.767940473574
 42
0.2600190587969859
 10
5431.748728353248
 20
6208.933663302293
 42
0.0758473423885353
 10
5432.178475418872
 20
6209.94489679438
 42
0.0362346977927353
 10
5432.392199577328
 20
6211.132849719019
 42
0.0263980514217353
 10
5432.479557277462
 20
6212.786320706391
 42
0.0263980514217401
 10
5432.392199577328
 20
6214.439791693763
 42
0.0362346977927692
 10
5432.178475418872
 20
6215.627744618403
 42
0.0758473423885144
 10
5431.748728353248
 20
6216.638978110489
 42
0.260019058796908
  0
LINE
  5
759D
330
1F
100
AcDbEntity
  8
Ruettler
100
AcDbLine
 10
5434.508066635078
 20
6207.795369647419
 30
0.0
 11
5432.669575016394
 21
6223.495369647419
 31
0.0
  0
ARC
  5
759E
330
1F
100
AcDbEntity
  8
Ruettler
100
AcDbCircle
 10
5450.051595725965
 20
6191.582166211822
 30
0.0
 40
10.0
100
AcDbArc
 50
89.38958386188573
 51
180.6104161381142
  0
ARC
  5
759F
330
1F
100
AcDbEntity
  8
Ruettler
100
AcDbCircle
 10
5441.388147255072
 20
6213.969513403636
 30
0.0
 40
12.91338216960784
100
AcDbArc
 50
131.5179943590263
 51
266.2804940532201
  0
ARC
  5
75A0
330
1F
100
AcDbEntity
  8
Ruettler
100
AcDbCircle
 10
5441.528255128849
 20
6208.014699764586
 30
0.0
 40
7.0
100
AcDbArc
 50
180.0
 51
273.8637819286038
  0
LINE
  5
75A1
330
1F
100
AcDbEntity
  8
Ruettler
100
AcDbLine
 10
5487.528255128849
 20
6204.105506808936
 30
0.0
 11
5441.999947443286
 21
6201.030610249087
 31
0.0
  0
ARC
  5
75A2
330
1F
100
AcDbEntity
  8
Ruettler
100
AcDbCircle
 10
5435.585124708044
 20
6184.695369647418
 30
0.0
 40
7.0
100
AcDbArc
 50
51.28631349249016
 51
90.0
  0
ARC
  5
75A3
330
1F
100
AcDbEntity
  8
Ruettler
100
AcDbCircle
 10
5434.937443347795
 20
6175.105506808936
 30
0.0
 40
4.0
100
AcDbArc
 50
270.0
 51
356.136218071344
  0
LINE
  5
75A4
330
1F
100
AcDbEntity
  8
Ruettler
100
AcDbLine
 10
5437.528255128849
 20
6154.105506808933
 30
0.0
 11
5440.052163234827
 21
6191.475630512968
 31
0.0
  0
LINE
  5
75A5
330
1F
100
AcDbEntity
  8
Ruettler
100
AcDbLine
 10
5435.585124708044
 20
6191.695369647419
 30
0.0
 11
5408.52825512885
 21
6191.695369647419
 31
0.0
  0
LINE
  5
75A6
330
1F
100
AcDbEntity
  8
Ruettler
100
AcDbLine
 10
5423.528255128849
 20
6171.105506808935
 30
0.0
 11
5434.937443347795
 21
6171.105506808935
 31
0.0
  0
LINE
  5
75A7
330
1F
100
AcDbEntity
  8
Ruettler
100
AcDbLine
 10
5408.52825512885
 20
6141.868006808937
 30
0.0
 11
5408.52825512885
 21
6076.105506808936
 31
0.0
  0
ARC
  5
75A8
330
1F
100
AcDbEntity
  8
Ruettler
100
AcDbCircle
 10
5421.528255128849
 20
6141.105506808935
 30
0.0
 40
2.0
100
AcDbArc
 50
270.0
 51
0.0
  0
LINE
  5
75A9
330
1F
100
AcDbEntity
  8
Ruettler
100
AcDbLine
 10
5423.528255128849
 20
6171.105506808935
 30
0.0
 11
5423.528255128849
 21
6137.105506808936
 31
0.0
  0
LINE
  5
75AA
330
1F
100
AcDbEntity
  8
Ruettler
100
AcDbLine
 10
5423.528255128849
 20
6167.105506808935
 30
0.0
 11
5423.528255128849
 21
6141.105506808935
 31
0.0
  0
ARC
  5
75AB
330
1F
100
AcDbEntity
  8
Ruettler
100
AcDbCircle
 10
5421.528255128849
 20
6167.105506808935
 30
0.0
 40
2.0
100
AcDbArc
 50
0.0
 51
90.0
  0
LINE
  5
75AC
330
1F
100
AcDbEntity
  8
Ruettler
100
AcDbLine
 10
5417.528255128849
 20
6169.105506808936
 30
0.0
 11
5421.528255128849
 21
6169.105506808936
 31
0.0
  0
LINE
  5
75AD
330
1F
100
AcDbEntity
  8
Ruettler
100
AcDbLine
 10
5408.52825512885
 20
6232.105506808935
 30
0.0
 11
5408.52825512885
 21
6166.343006808936
 31
0.0
  0
ARC
  5
75AE
330
1F
100
AcDbEntity
  8
Ruettler
100
AcDbCircle
 10
5417.528255128849
 20
6141.105506808935
 30
0.0
 40
2.0
100
AcDbArc
 50
180.0
 51
270.0
  0
LINE
  5
75AF
330
1F
100
AcDbEntity
  8
Ruettler
100
AcDbLine
 10
5417.528255128849
 20
6139.105506808935
 30
0.0
 11
5421.528255128849
 21
6139.105506808935
 31
0.0
  0
ARC
  5
75B0
330
1F
100
AcDbEntity
  8
Ruettler
100
AcDbCircle
 10
5417.528255128849
 20
6167.105506808935
 30
0.0
 40
2.0
100
AcDbArc
 50
90.0
 51
180.0
  0
LINE
  5
75B1
330
1F
100
AcDbEntity
  8
Ruettler
100
AcDbLine
 10
5415.528255128849
 20
6167.105506808935
 30
0.0
 11
5415.528255128849
 21
6141.105506808935
 31
0.0
  0
LINE
  5
75B2
330
1F
100
AcDbEntity
  8
Ruettler
100
AcDbLine
 10
5415.528255128849
 20
6166.605506808935
 30
0.0
 11
5378.698292092728
 21
6165.224383195081
 31
0.0
  0
LINE
  5
75B3
330
1F
100
AcDbEntity
  8
Ruettler
100
AcDbLine
 10
5415.528255128849
 20
6141.605506808936
 30
0.0
 11
5377.694627873107
 21
6143.024267831027
 31
0.0
  0
LINE
  5
75B4
330
1F
100
AcDbEntity
  8
Ruettler
100
AcDbLine
 10
5378.698292092728
 20
6165.224383195081
 30
0.0
 11
5378.698292092728
 21
6164.7212134848
 31
0.0
  0
LINE
  5
75B5
330
1F
100
AcDbEntity
  8
Ruettler
100
AcDbLine
 10
5378.698292092728
 20
6164.7212134848
 30
0.0
 11
5378.412954320245
 21
6163.580317649157
 31
0.0
  0
LINE
  5
75B6
330
1F
100
AcDbEntity
  8
Ruettler
100
AcDbLine
 10
5378.412954320245
 20
6163.580317649157
 30
0.0
 11
5377.842280607651
 21
6162.439421813515
 31
0.0
  0
LINE
  5
75B7
330
1F
100
AcDbEntity
  8
Ruettler
100
AcDbLine
 10
5377.842280607651
 20
6162.439421813515
 30
0.0
 11
5377.556942835161
 21
6161.298525977873
 31
0.0
  0
LINE
  5
75B8
330
1F
100
AcDbEntity
  8
Ruettler
100
AcDbLine
 10
5377.556942835161
 20
6161.298525977873
 30
0.0
 11
5377.271605062671
 21
6160.157631474691
 31
0.0
  0
LINE
  5
75B9
330
1F
100
AcDbEntity
  8
Ruettler
100
AcDbLine
 10
5377.271605062671
 20
6160.157631474691
 30
0.0
 11
5377.556942835161
 21
6159.016735639047
 31
0.0
  0
LINE
  5
75BA
330
1F
100
AcDbEntity
  8
Ruettler
100
AcDbLine
 10
5377.556942835161
 20
6159.016735639047
 30
0.0
 11
5377.842280607651
 21
6157.590615844494
 31
0.0
  0
LINE
  5
75BB
330
1F
100
AcDbEntity
  8
Ruettler
100
AcDbLine
 10
5377.842280607651
 20
6157.590615844494
 30
0.0
 11
5378.127618380133
 21
6156.449720008851
 31
0.0
  0
LINE
  5
75BC
330
1F
100
AcDbEntity
  8
Ruettler
100
AcDbLine
 10
5378.127618380133
 20
6155.308824173208
 30
0.0
 11
5377.842280607651
 21
6154.167928337566
 31
0.0
  0
LINE
  5
75BD
330
1F
100
AcDbEntity
  8
Ruettler
100
AcDbLine
 10
5377.842280607651
 20
6154.167928337566
 30
0.0
 11
5377.842280607651
 21
6153.027032501924
 31
0.0
  0
LINE
  5
75BE
330
1F
100
AcDbEntity
  8
Ruettler
100
AcDbLine
 10
5377.842280607651
 20
6153.027032501924
 30
0.0
 11
5377.271605062671
 21
6151.886136666281
 31
0.0
  0
LINE
  5
75BF
330
1F
100
AcDbEntity
  8
Ruettler
100
AcDbLine
 10
5377.271605062671
 20
6151.886136666281
 30
0.0
 11
5376.986267290189
 21
6150.745240830638
 31
0.0
  0
LINE
  5
75C0
330
1F
100
AcDbEntity
  8
Ruettler
100
AcDbLine
 10
5376.986267290189
 20
6150.745240830638
 30
0.0
 11
5376.700931350076
 21
6149.319122368545
 31
0.0
  0
LINE
  5
75C1
330
1F
100
AcDbEntity
  8
Ruettler
100
AcDbLine
 10
5376.700931350076
 20
6149.319122368545
 30
0.0
 11
5376.700931350076
 21
6148.178226532903
 31
0.0
  0
LINE
  5
75C2
330
1F
100
AcDbEntity
  8
Ruettler
100
AcDbLine
 10
5376.700931350076
 20
6148.178226532903
 30
0.0
 11
5376.986267290189
 21
6147.03733069726
 31
0.0
  0
LINE
  5
75C3
330
1F
100
AcDbEntity
  8
Ruettler
100
AcDbLine
 10
5376.986267290189
 20
6147.03733069726
 30
0.0
 11
5377.556942835161
 21
6145.896434861618
 31
0.0
  0
LINE
  5
75C4
330
1F
100
AcDbEntity
  8
Ruettler
100
AcDbLine
 10
5377.556942835161
 20
6145.896434861618
 30
0.0
 11
5377.842280607651
 21
6144.755539025975
 31
0.0
  0
LINE
  5
75C5
330
1F
100
AcDbEntity
  8
Ruettler
100
AcDbLine
 10
5378.127618380133
 20
6156.449720008851
 30
0.0
 11
5378.127618380133
 21
6155.308824173208
 31
0.0
  0
LINE
  5
75C6
330
1F
100
AcDbEntity
  8
Ruettler
100
AcDbLine
 10
5377.842280607651
 20
6143.614643190332
 30
0.0
 11
5377.694627873107
 21
6143.024267831027
 31
0.0
  0
LINE
  5
75C7
330
1F
100
AcDbEntity
  8
Ruettler
100
AcDbLine
 10
5377.842280607651
 20
6144.755539025975
 30
0.0
 11
5377.842280607651
 21
6143.614643190332
 31
0.0
  0
LINE
  5
75C8
330
1F
100
AcDbEntity
  8
Ruettler
100
AcDbLine
 10
5325.3863189114
 20
6161.105506808936
 30
0.0
 11
5325.340198268155
 21
6161.013302018961
 31
0.0
  0
LINE
  5
75C9
330
1F
100
AcDbEntity
  8
Ruettler
100
AcDbLine
 10
5325.340198268155
 20
6161.013302018961
 30
0.0
 11
5324.769522723183
 21
6159.87240751578
 31
0.0
  0
LINE
  5
75CA
330
1F
100
AcDbEntity
  8
Ruettler
100
AcDbLine
 10
5324.769522723183
 20
6159.87240751578
 30
0.0
 11
5324.198849010588
 21
6158.731511680137
 31
0.0
  0
LINE
  5
75CB
330
1F
100
AcDbEntity
  8
Ruettler
100
AcDbLine
 10
5324.198849010588
 20
6158.731511680137
 30
0.0
 11
5323.913511238107
 21
6157.590615844494
 31
0.0
  0
LINE
  5
75CC
330
1F
100
AcDbEntity
  8
Ruettler
100
AcDbLine
 10
5323.913511238107
 20
6157.590615844494
 30
0.0
 11
5324.198849010588
 21
6156.449720008851
 31
0.0
  0
LINE
  5
75CD
330
1F
100
AcDbEntity
  8
Ruettler
100
AcDbLine
 10
5324.484184950701
 20
6155.308824173208
 30
0.0
 11
5324.484184950701
 21
6151.886136666281
 31
0.0
  0
LINE
  5
75CE
330
1F
100
AcDbEntity
  8
Ruettler
100
AcDbLine
 10
5324.484184950701
 20
6151.886136666281
 30
0.0
 11
5323.913511238107
 21
6150.745240830638
 31
0.0
  0
LINE
  5
75CF
330
1F
100
AcDbEntity
  8
Ruettler
100
AcDbLine
 10
5323.913511238107
 20
6150.745240830638
 30
0.0
 11
5323.057497920645
 21
6149.604344994995
 31
0.0
  0
LINE
  5
75D0
330
1F
100
AcDbEntity
  8
Ruettler
100
AcDbLine
 10
5323.057497920645
 20
6149.604344994995
 30
0.0
 11
5322.77216198054
 21
6148.463450491814
 31
0.0
  0
LINE
  5
75D1
330
1F
100
AcDbEntity
  8
Ruettler
100
AcDbLine
 10
5322.77216198054
 20
6148.463450491814
 30
0.0
 11
5322.432540593961
 21
6147.105506808935
 31
0.0
  0
LINE
  5
75D2
330
1F
100
AcDbEntity
  8
Ruettler
100
AcDbLine
 10
5324.198849010588
 20
6156.449720008851
 30
0.0
 11
5324.484184950701
 21
6155.308824173208
 31
0.0
  0
LINE
  5
75D3
330
1F
100
AcDbEntity
  8
Ruettler
100
AcDbLine
 10
5322.432540593961
 20
6147.105506808935
 30
0.0
 11
5376.969216570646
 21
6147.105506808935
 31
0.0
  0
LINE
  5
75D4
330
1F
100
AcDbEntity
  8
Ruettler
100
AcDbLine
 10
5325.3863189114
 20
6161.105506808936
 30
0.0
 11
5377.508668731326
 21
6161.105506808936
 31
0.0
  0
LINE
  5
75D5
330
1F
100
AcDbEntity
  8
Ruettler
100
AcDbLine
 10
5378.02825512885
 20
6078.605506808925
 30
0.0
 11
5378.028255128842
 21
6143.011756808937
 31
0.0
  0
LINE
  5
75D6
330
1F
100
AcDbEntity
  8
Ruettler
100
AcDbLine
 10
5378.028255128834
 20
6229.605506808923
 30
0.0
 11
5378.028255128842
 21
6162.811223689228
 31
0.0
  0
LINE
  5
75D7
330
1F
100
AcDbEntity
  8
Ruettler
100
AcDbLine
 10
5379.52825512885
 20
6076.105506808925
 30
0.0
 11
5379.528255128843
 21
6142.955506808937
 31
0.0
  0
LINE
  5
75D8
330
1F
100
AcDbEntity
  8
Ruettler
100
AcDbLine
 10
5379.528255128835
 20
6165.255506808936
 30
0.0
 11
5379.528255128835
 21
6232.105506808926
 31
0.0
  0
LINE
  5
75D9
330
1F
100
AcDbEntity
  8
Ruettler
100
AcDbLine
 10
5378.02825512885
 20
6078.605506808925
 30
0.0
 11
5378.02825512885
 21
6076.105506808925
 31
0.0
  0
ARC
  5
75DA
330
1F
100
AcDbEntity
  8
Ruettler
100
AcDbCircle
 10
5377.028255128849
 20
6078.605506808925
 30
0.0
 40
1.0
100
AcDbArc
 50
0.0
 51
90.0
  0
LINE
  5
75DB
330
1F
100
AcDbEntity
  8
Ruettler
100
AcDbLine
 10
5378.02825512885
 20
6076.105506808925
 30
0.0
 11
5379.52825512885
 21
6076.105506808925
 31
0.0
  0
LINE
  5
75DC
330
1F
100
AcDbEntity
  8
Ruettler
100
AcDbLine
 10
5378.02825512885
 20
6076.105506808925
 30
0.0
 11
5378.02825512885
 21
6078.605506808925
 31
0.0
  0
ARC
  5
75DD
330
1F
100
AcDbEntity
  8
Ruettler
100
AcDbCircle
 10
5377.028255128849
 20
6078.605506808925
 30
0.0
 40
1.0
100
AcDbArc
 50
0.0
 51
90.0
  0
ARC
  5
75DE
330
1F
100
AcDbEntity
  8
Ruettler
100
AcDbCircle
 10
5267.782639051536
 20
6087.605506808903
 30
0.0
 40
8.0
100
AcDbArc
 50
194.1514182605175
 51
270.0
  0
LINE
  5
75DF
330
1F
100
AcDbEntity
  8
Ruettler
100
AcDbLine
 10
5267.782639051536
 20
6079.605506808903
 30
0.0
 11
5377.028255128849
 21
6079.605506808925
 31
0.0
  0
ARC
  5
75E0
330
1F
100
AcDbEntity
  8
Ruettler
100
AcDbCircle
 10
5377.028255128834
 20
6229.605506808923
 30
0.0
 40
1.0
100
AcDbArc
 50
270.0
 51
0.0
  0
LINE
  5
75E1
330
1F
100
AcDbEntity
  8
Ruettler
100
AcDbLine
 10
5378.028255128834
 20
6229.605506808923
 30
0.0
 11
5378.028255128834
 21
6232.105506808924
 31
0.0
  0
LINE
  5
75E2
330
1F
100
AcDbEntity
  8
Ruettler
100
AcDbLine
 10
5378.028255128834
 20
6232.105506808926
 30
0.0
 11
5379.528255128835
 21
6232.105506808926
 31
0.0
  0
LINE
  5
75E3
330
1F
100
AcDbEntity
  8
Ruettler
100
AcDbLine
 10
5378.028255128834
 20
6229.605506808925
 30
0.0
 11
5378.028255128834
 21
6232.105506808926
 31
0.0
  0
ARC
  5
75E4
330
1F
100
AcDbEntity
  8
Ruettler
100
AcDbCircle
 10
5377.028255128834
 20
6229.605506808925
 30
0.0
 40
1.0
100
AcDbArc
 50
270.0
 51
0.0
  0
ARC
  5
75E5
330
1F
100
AcDbEntity
  8
Ruettler
100
AcDbCircle
 10
5531.528255128836
 20
6154.105506808929
 30
0.0
 40
280.0
100
AcDbArc
 50
165.8485817394824
 51
194.1514182605175
  0
ARC
  5
75E6
330
1F
100
AcDbEntity
  8
Ruettler
100
AcDbCircle
 10
5267.782639051522
 20
6220.605506808903
 30
0.0
 40
8.0
100
AcDbArc
 50
90.0
 51
165.8485817394824
  0
LINE
  5
75E7
330
1F
100
AcDbEntity
  8
Ruettler
100
AcDbLine
 10
5267.782639051522
 20
6228.605506808903
 30
0.0
 11
5377.028255128834
 21
6228.605506808925
 31
0.0
  0
LINE
  5
75E8
330
1F
100
AcDbEntity
  8
Ruettler
100
AcDbLine
 10
5707.273871206155
 20
6228.605506808936
 30
0.0
 11
5598.028255128856
 21
6228.605506808936
 31
0.0
  0
LINE
  5
75E9
330
1F
100
AcDbEntity
  8
Ruettler
100
AcDbLine
 10
5595.528255128857
 20
6076.105506808936
 30
0.0
 11
5595.528255128857
 21
6232.105506808936
 31
0.0
  0
ARC
  5
75EA
330
1F
100
AcDbEntity
  8
Ruettler
100
AcDbCircle
 10
5707.273871206155
 20
6220.605506808936
 30
0.0
 40
8.0
100
AcDbArc
 50
14.15141826051758
 51
90.0
  0
ARC
  5
75EB
330
1F
100
AcDbEntity
  8
Ruettler
100
AcDbCircle
 10
5443.528255128847
 20
6154.105506808936
 30
0.0
 40
280.0
100
AcDbArc
 50
345.8485817394824
 51
14.15141826051758
  0
ARC
  5
75EC
330
1F
100
AcDbEntity
  8
Ruettler
100
AcDbCircle
 10
5598.028255128856
 20
6229.605506808937
 30
0.0
 40
1.0
100
AcDbArc
 50
180.0
 51
270.0
  0
LINE
  5
75ED
330
1F
100
AcDbEntity
  8
Ruettler
100
AcDbLine
 10
5597.028255128856
 20
6229.605506808937
 30
0.0
 11
5597.028255128856
 21
6232.105506808936
 31
0.0
  0
LINE
  5
75EE
330
1F
100
AcDbEntity
  8
Ruettler
100
AcDbLine
 10
5597.028255128856
 20
6232.105506808936
 30
0.0
 11
5595.528255128857
 21
6232.105506808936
 31
0.0
  0
LINE
  5
75EF
330
1F
100
AcDbEntity
  8
Ruettler
100
AcDbLine
 10
5597.028255128856
 20
6229.605506808934
 30
0.0
 11
5597.028255128856
 21
6232.105506808935
 31
0.0
  0
ARC
  5
75F0
330
1F
100
AcDbEntity
  8
Ruettler
100
AcDbCircle
 10
5598.028255128856
 20
6229.605506808934
 30
0.0
 40
1.0
100
AcDbArc
 50
180.0
 51
270.0
  0
LINE
  5
75F1
330
1F
100
AcDbEntity
  8
Ruettler
100
AcDbLine
 10
5597.028255128856
 20
6229.605506808934
 30
0.0
 11
5597.028255128856
 21
6154.105506808933
 31
0.0
  0
LINE
  5
75F2
330
1F
100
AcDbEntity
  8
Ruettler
100
AcDbLine
 10
5707.273871206155
 20
6079.605506808936
 30
0.0
 11
5598.028255128856
 21
6079.605506808936
 31
0.0
  0
ARC
  5
75F3
330
1F
100
AcDbEntity
  8
Ruettler
100
AcDbCircle
 10
5707.273871206155
 20
6087.605506808936
 30
0.0
 40
8.0
100
AcDbArc
 50
270.0
 51
345.8485817394824
  0
ARC
  5
75F4
330
1F
100
AcDbEntity
  8
Ruettler
100
AcDbCircle
 10
5598.028255128856
 20
6078.605506808936
 30
0.0
 40
1.0
100
AcDbArc
 50
90.0
 51
180.0
  0
LINE
  5
75F5
330
1F
100
AcDbEntity
  8
Ruettler
100
AcDbLine
 10
5597.028255128856
 20
6076.105506808936
 30
0.0
 11
5597.028255128856
 21
6078.605506808936
 31
0.0
  0
LINE
  5
75F6
330
1F
100
AcDbEntity
  8
Ruettler
100
AcDbLine
 10
5597.028255128856
 20
6076.105506808936
 30
0.0
 11
5595.528255128857
 21
6076.105506808936
 31
0.0
  0
LINE
  5
75F7
330
1F
100
AcDbEntity
  8
Ruettler
100
AcDbLine
 10
5597.028255128856
 20
6078.605506808935
 30
0.0
 11
5597.028255128856
 21
6154.105506808936
 31
0.0
  0
ARC
  5
75F8
330
1F
100
AcDbEntity
  8
Ruettler
100
AcDbCircle
 10
5598.028255128856
 20
6078.605506808935
 30
0.0
 40
1.0
100
AcDbArc
 50
90.0
 51
180.0
  0
LINE
  5
75F9
330
1F
100
AcDbEntity
  8
Ruettler
100
AcDbLine
 10
5597.028255128856
 20
6078.605506808935
 30
0.0
 11
5597.028255128856
 21
6076.105506808936
 31
0.0
  0
ARC
  5
75FA
330
1F
100
AcDbEntity
  8
Ruettler
100
AcDbCircle
 10
5537.528255128856
 20
6244.105506808935
 30
0.0
 40
20.0
100
AcDbArc
 50
0.0
 51
180.0
  0
ARC
  5
75FB
330
1F
100
AcDbEntity
  8
Ruettler
100
AcDbCircle
 10
5437.528255128849
 20
6244.105506808932
 30
0.0
 40
20.0
100
AcDbArc
 50
0.0
 51
180.0
  0
LINE
  5
75FC
330
1F
100
AcDbEntity
  8
Ruettler
100
AcDbLine
 10
5457.528255128849
 20
6244.105506808933
 30
0.0
 11
5457.528255128849
 21
6227.105506808934
 31
0.0
  0
LINE
  5
75FD
330
1F
100
AcDbEntity
  8
Ruettler
100
AcDbLine
 10
5417.528255128849
 20
6244.105506808932
 30
0.0
 11
5417.528255128849
 21
6232.105506808933
 31
0.0
  0
CIRCLE
  5
75FE
330
1F
100
AcDbEntity
  8
DIN-Teile
100
AcDbCircle
 10
5437.528255128842
 20
6244.105506808931
 30
0.0
 40
12.0
  0
LWPOLYLINE
  5
75FF
330
1F
100
AcDbEntity
  8
DIN-Teile
100
AcDbPolyline
 90
        6
 70
     1
 43
0.0
 10
5437.528255128842
 20
6230.245506808931
 10
5425.528255128842
 20
6237.175506808931
 10
5425.528255128842
 20
6251.035506808931
 10
5437.528255128842
 20
6257.965506808931
 10
5449.528255128842
 20
6251.035506808931
 10
5449.528255128842
 20
6237.175506808931
  0
CIRCLE
  5
7600
330
1F
100
AcDbEntity
  8
Ruettler
100
AcDbCircle
 10
5437.528255128849
 20
6244.105506808932
 30
0.0
 40
15.0
  0
LINE
  5
7601
330
1F
100
AcDbEntity
  8
Achsen
 48
10.0
100
AcDbLine
 10
5728.953191237677
 20
6154.105506808946
 30
0.0
 11
5246.103319020014
 21
6154.105506808929
 31
0.0
  0
ARC
  5
7602
330
1F
100
AcDbEntity
  8
Ruettler
100
AcDbCircle
 10
5442.02825512884
 20
6405.576435887763
 30
0.0
 40
281.4999999999999
100
AcDbArc
 50
346.1742083790269
 51
13.825791620973
  0
LINE
  5
7603
330
1F
100
AcDbEntity
  8
Ruettler
100
AcDbLine
 10
5706.147546359147
 20
6331.076435887762
 30
0.0
 11
5598.028255128849
 21
6331.076435887762
 31
0.0
  0
LINE
  5
7604
330
1F
100
AcDbEntity
  8
Ruettler
100
AcDbLine
 10
5595.528255128849
 20
6327.576435887762
 30
0.0
 11
5595.528255128849
 21
6330.076435887762
 31
0.0
  0
LINE
  5
7605
330
1F
100
AcDbEntity
  8
Ruettler
100
AcDbLine
 10
5597.028255128849
 20
6327.576435887762
 30
0.0
 11
5595.528255128849
 21
6327.576435887762
 31
0.0
  0
LINE
  5
7606
330
1F
100
AcDbEntity
  8
Ruettler
100
AcDbLine
 10
5597.028255128849
 20
6327.576435887762
 30
0.0
 11
5597.028255128849
 21
6483.576435887762
 31
0.0
  0
ARC
  5
7607
330
1F
100
AcDbEntity
  8
Ruettler
100
AcDbCircle
 10
5598.028255128849
 20
6330.076435887762
 30
0.0
 40
1.0
100
AcDbArc
 50
90.0
 51
180.0
  0
LINE
  5
7608
330
1F
100
AcDbEntity
  8
Ruettler
100
AcDbLine
 10
5595.528255128849
 20
6327.576435887762
 30
0.0
 11
5595.528255128849
 21
6329.276435887762
 31
0.0
  0
ARC
  5
7609
330
1F
100
AcDbEntity
  8
Ruettler
100
AcDbCircle
 10
5706.147546359147
 20
6340.576435887762
 30
0.0
 40
9.5
100
AcDbArc
 50
270.0
 51
346.1742083790269
  0
LINE
  5
760A
330
1F
100
AcDbEntity
  8
Ruettler
100
AcDbLine
 10
5706.147546359147
 20
6480.076435887763
 30
0.0
 11
5598.028255128849
 21
6480.076435887763
 31
0.0
  0
LINE
  5
760B
330
1F
100
AcDbEntity
  8
Ruettler
100
AcDbLine
 10
5595.528255128849
 20
6481.076435887762
 30
0.0
 11
5595.528255128849
 21
6483.576435887762
 31
0.0
  0
ARC
  5
760C
330
1F
100
AcDbEntity
  8
Ruettler
100
AcDbCircle
 10
5598.028255128849
 20
6481.076435887762
 30
0.0
 40
1.0
100
AcDbArc
 50
180.0
 51
270.0
  0
LINE
  5
760D
330
1F
100
AcDbEntity
  8
Ruettler
100
AcDbLine
 10
5597.028255128849
 20
6483.576435887762
 30
0.0
 11
5595.528255128849
 21
6483.576435887762
 31
0.0
  0
LINE
  5
760E
330
1F
100
AcDbEntity
  8
Ruettler
100
AcDbLine
 10
5595.528255128849
 20
6327.576435887762
 30
0.0
 11
5595.528255128849
 21
6483.576435887762
 31
0.0
  0
ARC
  5
760F
330
1F
100
AcDbEntity
  8
Ruettler
100
AcDbCircle
 10
5706.147546359147
 20
6470.576435887763
 30
0.0
 40
9.5
100
AcDbArc
 50
13.825791620973
 51
90.0
  0
LINE
  5
7610
330
1F
100
AcDbEntity
  8
Ruettler
100
AcDbLine
 10
5443.52825512885
 20
6530.576435887763
 30
0.0
 11
5532.528255128849
 21
6530.576435887763
 31
0.0
  0
LINE
  5
7611
330
1F
100
AcDbEntity
  8
Achsen
 48
10.0
100
AcDbLine
 10
5312.879417363063
 20
6502.576435887762
 30
0.0
 11
5429.673058794934
 21
6502.576435887762
 31
0.0
  0
LINE
  5
7612
330
1F
100
AcDbEntity
  8
Ruettler
100
AcDbLine
 10
5460.028255128849
 20
6327.576435887762
 30
0.0
 11
5515.028255128849
 21
6327.576435887762
 31
0.0
  0
LINE
  5
7613
330
1F
100
AcDbEntity
  8
Achsen
 48
10.0
100
AcDbLine
 10
5487.528255128849
 20
6538.646591839394
 30
0.0
 11
5487.528255128849
 21
6501.986761561425
 31
0.0
  0
LINE
  5
7615
330
1F
100
AcDbEntity
  8
Ruettler
100
AcDbLine
 10
5408.52825512885
 20
6327.576435887762
 30
0.0
 11
5417.528255128848
 21
6327.576435887763
 31
0.0
  0
LINE
  5
7616
330
1F
100
AcDbEntity
  8
Ruettler
100
AcDbLine
 10
5417.528255128849
 20
6322.576435887762
 30
0.0
 11
5457.528255128849
 21
6322.576435887762
 31
0.0
  0
LINE
  5
7617
330
1F
100
AcDbEntity
  8
Ruettler
100
AcDbLine
 10
5408.52825512885
 20
6333.576435887763
 30
0.0
 11
5408.52825512885
 21
6327.576435887762
 31
0.0
  0
LINE
  5
7618
330
1F
100
AcDbEntity
  8
Ruettler
100
AcDbLine
 10
5408.52825512885
 20
6327.576435887762
 30
0.0
 11
5408.52825512885
 21
6333.576435887763
 31
0.0
  0
LINE
  5
7619
330
1F
100
AcDbEntity
  8
Ruettler
100
AcDbLine
 10
5417.528255128849
 20
6327.576435887762
 30
0.0
 11
5417.528255128849
 21
6322.576435887762
 31
0.0
  0
ARC
  5
761F
330
1F
100
AcDbEntity
  8
Ruettler
100
AcDbCircle
 10
5460.028255128849
 20
6325.076435887762
 30
0.0
 40
2.5
100
AcDbArc
 50
90.0
 51
180.0
  0
LINE
  5
7620
330
1F
100
AcDbEntity
  8
Ruettler
100
AcDbLine
 10
5457.528255128849
 20
6325.076435887762
 30
0.0
 11
5457.528255128849
 21
6322.576435887762
 31
0.0
  0
LINE
  5
7621
330
1F
100
AcDbEntity
  8
Ruettler
100
AcDbLine
 10
5322.432540593965
 20
6495.576435887763
 30
0.0
 11
5376.969216570647
 21
6495.576435887763
 31
0.0
  0
LINE
  5
7622
330
1F
100
AcDbEntity
  8
Ruettler
100
AcDbLine
 10
5325.3863189114
 20
6509.576435887763
 30
0.0
 11
5377.508668731326
 21
6509.576435887763
 31
0.0
  0
SPLINE
  5
7623
330
1F
100
AcDbEntity
  8
Ruettler
100
AcDbSpline
210
0.0
220
0.0
230
1.0
 70
  1064
 71
     3
 72
    10
 73
     6
 74
     4
 42
0.000000001
 43
0.0000000001
 44
0.0000000001
 12
-0.4348194068932139
 22
-0.9005176752229984
 32
0.0
 13
-0.1808194132037571
 23
-0.9835163139514509
 33
0.0
 40
0.0
 40
0.0
 40
0.0
 40
0.0
 40
6.034650582721222
 40
10.94776830448615
 40
15.33211303481967
 40
15.33211303481967
 40
15.33211303481967
 40
15.33211303481967
 10
5325.3863189114
 20
6509.576435887763
 30
0.0
 10
5324.511657849004
 20
6507.764999383251
 30
0.0
 10
5320.191331758495
 20
6505.293789656998
 30
0.0
 10
5324.05691953479
 20
6500.035387997933
 30
0.0
 10
5322.696798807772
 20
6497.013794077187
 30
0.0
 10
5322.432540593965
 20
6495.576435887763
 30
0.0
 11
5325.3863189114
 21
6509.576435887763
 31
0.0
 11
5321.900124887385
 21
6504.650640633953
 31
0.0
 11
5323.155847662045
 21
6499.900705259538
 31
0.0
 11
5322.432540593965
 21
6495.576435887763
 31
0.0
  0
LINE
  5
7624
330
1F
100
AcDbEntity
  8
Ruettler
100
AcDbLine
 10
5420.928255128849
 20
6484.576435887763
 30
0.0
 11
5422.528255128849
 21
6484.576435887763
 31
0.0
  0
LINE
  5
7625
330
1F
100
AcDbEntity
  8
Ruettler
100
AcDbLine
 10
5415.528255128849
 20
6502.576435887762
 30
0.0
 11
5423.528255128849
 21
6502.576435887762
 31
0.0
  0
ARC
  5
7626
330
1F
100
AcDbEntity
  8
Ruettler
100
AcDbCircle
 10
5421.528255128849
 20
6489.576435887762
 30
0.0
 40
2.0
100
AcDbArc
 50
270.0
 51
0.0
  0
ARC
  5
7627
330
1F
100
AcDbEntity
  8
Ruettler
100
AcDbCircle
 10
5421.528255128849
 20
6515.576435887762
 30
0.0
 40
2.0
100
AcDbArc
 50
0.0
 51
90.0
  0
LINE
  5
7628
330
1F
100
AcDbEntity
  8
Ruettler
100
AcDbLine
 10
5420.928255128849
 20
6484.576435887763
 30
0.0
 11
5420.528255128849
 21
6484.176435887762
 31
0.0
  0
ARC
  5
7629
330
1F
100
AcDbEntity
  8
Ruettler
100
AcDbCircle
 10
5420.028255128849
 20
6484.076435887762
 30
0.0
 40
0.5
100
AcDbArc
 50
270.0
 51
0.0
  0
LINE
  5
762A
330
1F
100
AcDbEntity
  8
Ruettler
100
AcDbLine
 10
5420.528255128849
 20
6484.176435887762
 30
0.0
 11
5420.528255128849
 21
6484.076435887762
 31
0.0
  0
LINE
  5
762B
330
1F
100
AcDbEntity
  8
Ruettler
100
AcDbLine
 10
5408.52825512885
 20
6483.576435887762
 30
0.0
 11
5427.843993243143
 21
6483.576435887762
 31
0.0
  0
LINE
  5
762C
330
1F
100
AcDbEntity
  8
Ruettler
100
AcDbLine
 10
5408.52825512885
 20
6477.576435887762
 30
0.0
 11
5408.52825512885
 21
6483.576435887762
 31
0.0
  0
LINE
  5
762D
330
1F
100
AcDbEntity
  8
Ruettler
100
AcDbLine
 10
5408.52825512885
 20
6483.576435887762
 30
0.0
 11
5408.52825512885
 21
6477.576435887762
 31
0.0
  0
LINE
  5
762E
330
1F
100
AcDbEntity
  8
Ruettler
100
AcDbLine
 10
5376.986267290187
 20
6495.508259776087
 30
0.0
 11
5377.556942835161
 21
6494.367363940444
 31
0.0
  0
LINE
  5
762F
330
1F
100
AcDbEntity
  8
Ruettler
100
AcDbLine
 10
5376.700931350079
 20
6496.649155611731
 30
0.0
 11
5376.986267290187
 21
6495.508259776087
 31
0.0
  0
LINE
  5
7630
330
1F
100
AcDbEntity
  8
Ruettler
100
AcDbLine
 10
5376.700931350079
 20
6497.790051447371
 30
0.0
 11
5376.700931350079
 21
6496.649155611731
 31
0.0
  0
LINE
  5
7631
330
1F
100
AcDbEntity
  8
Ruettler
100
AcDbLine
 10
5376.986267290187
 20
6499.216169909465
 30
0.0
 11
5376.700931350079
 21
6497.790051447371
 31
0.0
  0
LINE
  5
7632
330
1F
100
AcDbEntity
  8
Ruettler
100
AcDbLine
 10
5377.271605062674
 20
6500.357065745108
 30
0.0
 11
5376.986267290187
 21
6499.216169909465
 31
0.0
  0
LINE
  5
7633
330
1F
100
AcDbEntity
  8
Ruettler
100
AcDbLine
 10
5415.528255128849
 20
6490.076435887762
 30
0.0
 11
5377.694627873109
 21
6491.495196909852
 31
0.0
  0
LINE
  5
7634
330
1F
100
AcDbEntity
  8
Ruettler
100
AcDbLine
 10
5377.842280607647
 20
6493.226468104802
 30
0.0
 11
5377.842280607647
 21
6492.085572269158
 31
0.0
  0
LINE
  5
7635
330
1F
100
AcDbEntity
  8
Ruettler
100
AcDbLine
 10
5377.842280607647
 20
6492.085572269158
 30
0.0
 11
5377.694627873109
 21
6491.495196909852
 31
0.0
  0
LINE
  5
7636
330
1F
100
AcDbEntity
  8
Ruettler
100
AcDbLine
 10
5377.556942835161
 20
6494.367363940444
 30
0.0
 11
5377.842280607647
 21
6493.226468104802
 31
0.0
  0
LINE
  5
7637
330
1F
100
AcDbEntity
  8
Ruettler
100
AcDbLine
 10
5415.528255128849
 20
6515.076435887762
 30
0.0
 11
5378.698292092728
 21
6513.695312273907
 31
0.0
  0
LINE
  5
7638
330
1F
100
AcDbEntity
  8
Ruettler
100
AcDbLine
 10
5377.842280607647
 20
6506.061544923321
 30
0.0
 11
5378.127618380133
 21
6504.920649087678
 31
0.0
  0
LINE
  5
7639
330
1F
100
AcDbEntity
  8
Ruettler
100
AcDbLine
 10
5377.556942835161
 20
6507.487664717874
 30
0.0
 11
5377.842280607647
 21
6506.061544923321
 31
0.0
  0
LINE
  5
763A
330
1F
100
AcDbEntity
  8
Ruettler
100
AcDbLine
 10
5377.271605062674
 20
6508.628560553518
 30
0.0
 11
5377.556942835161
 21
6507.487664717874
 31
0.0
  0
LINE
  5
763B
330
1F
100
AcDbEntity
  8
Ruettler
100
AcDbLine
 10
5377.556942835161
 20
6509.7694550567
 30
0.0
 11
5377.271605062674
 21
6508.628560553518
 31
0.0
  0
LINE
  5
763C
330
1F
100
AcDbEntity
  8
Ruettler
100
AcDbLine
 10
5377.842280607647
 20
6510.910350892342
 30
0.0
 11
5377.556942835161
 21
6509.7694550567
 31
0.0
  0
LINE
  5
763D
330
1F
100
AcDbEntity
  8
Ruettler
100
AcDbLine
 10
5378.412954320242
 20
6512.051246727984
 30
0.0
 11
5377.842280607647
 21
6510.910350892342
 31
0.0
  0
LINE
  5
763E
330
1F
100
AcDbEntity
  8
Ruettler
100
AcDbLine
 10
5378.698292092728
 20
6513.192142563628
 30
0.0
 11
5378.412954320242
 21
6512.051246727984
 31
0.0
  0
LINE
  5
763F
330
1F
100
AcDbEntity
  8
Ruettler
100
AcDbLine
 10
5378.698292092728
 20
6513.695312273907
 30
0.0
 11
5378.698292092728
 21
6513.192142563628
 31
0.0
  0
LINE
  5
7640
330
1F
100
AcDbEntity
  8
Ruettler
100
AcDbLine
 10
5415.528255128849
 20
6515.576435887762
 30
0.0
 11
5415.528255128849
 21
6489.576435887762
 31
0.0
  0
LINE
  5
7641
330
1F
100
AcDbEntity
  8
Ruettler
100
AcDbLine
 10
5417.528255128849
 20
6487.576435887762
 30
0.0
 11
5421.528255128849
 21
6487.576435887762
 31
0.0
  0
ARC
  5
7642
330
1F
100
AcDbEntity
  8
Ruettler
100
AcDbCircle
 10
5417.528255128849
 20
6489.576435887762
 30
0.0
 40
2.0
100
AcDbArc
 50
180.0
 51
270.0
  0
LINE
  5
7643
330
1F
100
AcDbEntity
  8
Ruettler
100
AcDbLine
 10
5417.528255128849
 20
6517.576435887763
 30
0.0
 11
5421.528255128849
 21
6517.576435887763
 31
0.0
  0
ARC
  5
7644
330
1F
100
AcDbEntity
  8
Ruettler
100
AcDbCircle
 10
5417.528255128849
 20
6515.576435887762
 30
0.0
 40
2.0
100
AcDbArc
 50
90.0
 51
180.0
  0
ARC
  5
7645
330
1F
100
AcDbEntity
  8
Ruettler
100
AcDbCircle
 10
5422.528255128849
 20
6485.576435887762
 30
0.0
 40
1.0
100
AcDbArc
 50
270.0
 51
0.0
  0
LINE
  5
7646
330
1F
100
AcDbEntity
  8
Ruettler
100
AcDbLine
 10
5423.528255128849
 20
6519.576435887763
 30
0.0
 11
5423.528255128849
 21
6485.576435887762
 31
0.0
  0
LINE
  5
7647
330
1F
100
AcDbEntity
  8
Ruettler
100
AcDbLine
 10
5423.528255128849
 20
6519.576435887763
 30
0.0
 11
5536.52825512885
 21
6519.576435887763
 31
0.0
  0
LINE
  5
7648
330
1F
100
AcDbEntity
  8
Ruettler
100
AcDbLine
 10
5438.528255128849
 20
6526.576435887761
 30
0.0
 11
5438.528255128849
 21
6519.576435887763
 31
0.0
  0
ARC
  5
7649
330
1F
100
AcDbEntity
  8
Ruettler
100
AcDbCircle
 10
5443.395021443965
 20
6525.617977993869
 30
0.0
 40
4.96024756441744
100
AcDbArc
 50
88.46083366688337
 51
168.8587828413383
  0
LINE
  5
764A
330
1F
100
AcDbEntity
  8
Ruettler
100
AcDbLine
 10
5423.528255128849
 20
6515.576435887762
 30
0.0
 11
5423.528255128849
 21
6489.576435887762
 31
0.0
  0
LINE
  5
764C
330
1F
100
AcDbEntity
  8
Ruettler
100
AcDbLine
 10
5557.52825512885
 20
6327.576435887762
 30
0.0
 11
5566.528255128849
 21
6327.576435887762
 31
0.0
  0
LINE
  5
764D
330
1F
100
AcDbEntity
  8
Ruettler
100
AcDbLine
 10
5517.528255128849
 20
6322.576435887762
 30
0.0
 11
5557.52825512885
 21
6322.576435887762
 31
0.0
  0
ARC
  5
764E
330
1F
100
AcDbEntity
  8
Ruettler
100
AcDbCircle
 10
5515.028255128849
 20
6325.076435887762
 30
0.0
 40
2.5
100
AcDbArc
 50
0.0
 51
90.0
  0
LINE
  5
764F
330
1F
100
AcDbEntity
  8
Ruettler
100
AcDbLine
 10
5517.528255128849
 20
6325.076435887762
 30
0.0
 11
5517.528255128849
 21
6322.576435887762
 31
0.0
  0
LINE
  5
7655
330
1F
100
AcDbEntity
  8
Ruettler
100
AcDbLine
 10
5557.52825512885
 20
6327.576435887762
 30
0.0
 11
5557.52825512885
 21
6322.576435887762
 31
0.0
  0
LINE
  5
7656
330
1F
100
AcDbEntity
  8
Ruettler
100
AcDbLine
 10
5547.212517014555
 20
6483.576435887762
 30
0.0
 11
5566.528255128849
 21
6483.576435887762
 31
0.0
  0
ARC
  5
7657
330
1F
100
AcDbEntity
  8
Ruettler
100
AcDbCircle
 10
5547.212517014555
 20
6493.576435887762
 30
0.0
 40
10.0
100
AcDbArc
 50
181.4999999999898
 51
270.0
  0
LINE
  5
7658
330
1F
100
AcDbEntity
  8
Ruettler
100
AcDbLine
 10
5536.52825512885
 20
6519.576435887763
 30
0.0
 11
5537.215943764801
 21
6493.314666404683
 31
0.0
  0
LINE
  5
7659
330
1F
100
AcDbEntity
  8
Ruettler
100
AcDbLine
 10
5438.528255128849
 20
6520.576435887763
 30
0.0
 11
5536.52825512885
 21
6520.576435887763
 31
0.0
  0
LINE
  5
765A
330
1F
100
AcDbEntity
  8
Ruettler
100
AcDbLine
 10
5536.52825512885
 20
6526.576435887761
 30
0.0
 11
5536.52825512885
 21
6519.576435887763
 31
0.0
  0
ARC
  5
765B
330
1F
100
AcDbEntity
  8
Ruettler
100
AcDbCircle
 10
5532.528255128849
 20
6526.576435887761
 30
0.0
 40
4.0
100
AcDbArc
 50
0.0
 51
90.0
  0
LINE
  5
765C
330
1F
100
AcDbEntity
  8
Ruettler
100
AcDbLine
 10
5566.528255128849
 20
6477.576435887762
 30
0.0
 11
5566.528255128849
 21
6483.576435887762
 31
0.0
  0
LINE
  5
765D
330
1F
100
AcDbEntity
  8
Ruettler
100
AcDbLine
 10
5566.528255128849
 20
6483.576435887762
 30
0.0
 11
5566.528255128849
 21
6327.576435887762
 31
0.0
  0
LINE
  5
765E
330
1F
100
AcDbEntity
  8
Ruettler
100
AcDbLine
 10
5566.528255128847
 20
6327.576435887762
 30
0.0
 11
5595.528255128847
 21
6327.576435887762
 31
0.0
  0
LINE
  5
765F
330
1F
100
AcDbEntity
  8
Ruettler
100
AcDbLine
 10
5566.528255128847
 20
6327.576435887762
 30
0.0
 11
5595.528255128847
 21
6327.576435887762
 31
0.0
  0
LINE
  5
7660
330
1F
100
AcDbEntity
  8
Ruettler
100
AcDbLine
 10
5566.528255128847
 20
6483.576435887762
 30
0.0
 11
5595.528255128847
 21
6483.576435887762
 31
0.0
  0
LINE
  5
7661
330
1F
100
AcDbEntity
  8
Ruettler
100
AcDbLine
 10
5408.528255128851
 20
6327.576435887762
 30
0.0
 11
5408.528255128851
 21
6333.576435887763
 31
0.0
  0
LINE
  5
7662
330
1F
100
AcDbEntity
  8
Ruettler
100
AcDbLine
 10
5408.528255128851
 20
6477.576435887762
 30
0.0
 11
5408.528255128851
 21
6483.576435887762
 31
0.0
  0
LINE
  5
7664
330
1F
100
AcDbEntity
  8
Achsen
 48
10.0
100
AcDbLine
 10
5728.953191237678
 20
6405.576435887771
 30
0.0
 11
5246.103319020014
 21
6405.576435887756
 31
0.0
  0
LINE
  5
7665
330
1F
100
AcDbEntity
  8
Ruettler
100
AcDbLine
 10
5947.844895161424
 20
6519.576435887763
 30
0.0
 11
5948.630978732019
 21
6474.541738289603
 31
11.26038941138711
  0
LINE
  5
7666
330
1F
100
AcDbEntity
  8
Ruettler
100
AcDbLine
 10
5847.844895161425
 20
6519.576435887763
 30
0.0
 11
5847.05881159083
 21
6474.541738289603
 31
11.26038941138711
  0
ARC
  5
7667
330
1F
100
AcDbEntity
  8
Ruettler
100
AcDbCircle
 10
5897.844895161421
 20
6405.576435887763
 30
0.0
 40
78.0758040911995
100
AcDbArc
 50
333.6413780098388
 51
270.0
  0
LINE
  5
7672
330
1F
100
AcDbEntity
  8
Achsen
 48
10.0
100
AcDbLine
 10
5951.88843223764
 20
6459.619972963977
 30
0.0
 11
5961.181083762174
 21
6468.91262448851
 31
0.0
  0
ARC
  5
7673
330
1F
100
AcDbEntity
  8
Achsen
 48
10.0
100
AcDbCircle
 10
5897.844895161421
 20
6405.576435887763
 30
0.0
 40
83.0
100
AcDbArc
 50
40.46285485581186
 51
49.53714514426161
  0
ARC
  5
7677
330
1F
100
AcDbEntity
  8
Ruettler
100
AcDbCircle
 10
5897.844895161421
 20
6405.576435887763
 30
0.0
 40
78.0
100
AcDbArc
 50
154.4908787583517
 51
270.0
  0
LINE
  5
7679
330
1F
100
AcDbEntity
  8
Ruettler
100
AcDbLine
 10
6007.844895161425
 20
6431.576435887762
 30
0.0
 11
6007.844895161425
 21
6322.576435887762
 31
0.0
  0
ARC
  5
767A
330
1F
100
AcDbEntity
  8
Ruettler
100
AcDbCircle
 10
5897.844895161421
 20
6405.576435887763
 30
0.0
 40
78.0
100
AcDbArc
 50
270.0
 51
25.50912124164826
  0
LINE
  5
767B
330
1F
100
AcDbEntity
  8
Ruettler
100
AcDbLine
 10
5787.844895161424
 20
6431.576435887762
 30
0.0
 11
5787.844895161424
 21
6322.576435887762
 31
0.0
  0
LINE
  5
767C
330
1F
100
AcDbEntity
  8
Ruettler
100
AcDbLine
 10
5973.844895161424
 20
6434.576435887763
 30
0.0
 11
5973.844895161424
 21
6434.076435887762
 31
0.0
  0
LWPOLYLINE
  5
767D
330
1F
100
AcDbEntity
  8
DIN-Teile
370
    30
100
AcDbPolyline
 90
        4
 70
     0
 43
0.0
 10
5999.089895161423
 20
6435.17643588776
 42
-0.4142135623730951
 10
5998.489895161425
 20
6434.576435887763
 10
5977.199895161424
 20
6434.576435887763
 42
-0.4142135623730951
 10
5976.599895161426
 20
6435.17643588776
  0
LINE
  5
767E
330
1F
100
AcDbEntity
  8
Ruettler
100
AcDbLine
 10
6001.844895161425
 20
6434.576435887763
 30
0.0
 11
6001.844895161425
 21
6434.076435887762
 31
0.0
  0
LINE
  5
767F
330
1F
100
AcDbEntity
  8
Ruettler
100
AcDbLine
 10
6001.844895161425
 20
6434.576435887763
 30
0.0
 11
5973.844895161424
 21
6434.576435887763
 31
0.0
  0
LINE
  5
7680
330
1F
100
AcDbEntity
  8
DIN-Teile
100
AcDbLine
 10
5980.914895161425
 20
6435.17643588776
 30
0.0
 11
5980.914895161425
 21
6443.387435862255
 31
0.0
  0
LWPOLYLINE
  5
7681
330
1F
100
AcDbEntity
  8
DIN-Teile
370
    30
100
AcDbPolyline
 90
        6
 70
     1
 43
0.0
 10
6001.704895161425
 20
6435.17643588776
 10
5973.984895161424
 20
6435.17643588776
 10
5973.984895161424
 20
6443.387435862255
 42
-0.3431457505076199
 10
5980.914895161425
 20
6443.387435862255
 42
-0.17157287525381
 10
5994.774895161425
 20
6443.387435862255
 42
-0.3431457505076199
 10
6001.704895161425
 20
6443.387435862255
  0
LINE
  5
7682
330
1F
100
AcDbEntity
  8
DIN-Teile
370
    30
100
AcDbLine
 10
5998.239895161425
 20
6444.576435887762
 30
0.0
 11
5977.449895161424
 21
6444.576435887762
 31
0.0
  0
LINE
  5
7683
330
1F
100
AcDbEntity
  8
DIN-Teile
370
    30
100
AcDbLine
 10
5994.774895161425
 20
6435.17643588776
 30
0.0
 11
5994.774895161425
 21
6443.387435862255
 31
0.0
  0
LWPOLYLINE
  5
7684
330
1F
100
AcDbEntity
  8
DIN-Teile
370
    30
100
AcDbPolyline
 90
        4
 70
     0
 43
0.0
 10
5796.599895161426
 20
6435.17643588776
 42
0.4142135623730951
 10
5797.199895161424
 20
6434.576435887763
 10
5818.489895161425
 20
6434.576435887763
 42
0.4142135623730951
 10
5819.089895161424
 20
6435.17643588776
  0
LINE
  5
7685
330
1F
100
AcDbEntity
  8
Ruettler
100
AcDbLine
 10
5821.844895161425
 20
6434.576435887763
 30
0.0
 11
5821.844895161425
 21
6434.076435887762
 31
0.0
  0
LINE
  5
7686
330
1F
100
AcDbEntity
  8
DIN-Teile
370
    30
100
AcDbLine
 10
5800.914895161424
 20
6435.17643588776
 30
0.0
 11
5800.914895161424
 21
6443.387435862255
 31
0.0
  0
LINE
  5
7687
330
1F
100
AcDbEntity
  8
DIN-Teile
370
    30
100
AcDbLine
 10
5797.449895161424
 20
6444.576435887762
 30
0.0
 11
5818.239895161426
 21
6444.576435887762
 31
0.0
  0
LWPOLYLINE
  5
7688
330
1F
100
AcDbEntity
  8
DIN-Teile
370
    30
100
AcDbPolyline
 90
        6
 70
     1
 43
0.0
 10
5793.984895161424
 20
6435.17643588776
 10
5821.704895161425
 20
6435.17643588776
 10
5821.704895161425
 20
6443.387435862255
 42
0.3431457505076199
 10
5814.774895161424
 20
6443.387435862255
 42
0.17157287525381
 10
5800.914895161424
 20
6443.387435862255
 42
0.3431457505076199
 10
5793.984895161424
 20
6443.387435862255
  0
LINE
  5
7689
330
1F
100
AcDbEntity
  8
DIN-Teile
100
AcDbLine
 10
5814.774895161424
 20
6435.17643588776
 30
0.0
 11
5814.774895161424
 21
6443.387435862255
 31
0.0
  0
LINE
  5
768A
330
1F
100
AcDbEntity
  8
Ruettler
100
AcDbLine
 10
5847.844895161425
 20
6519.576435887763
 30
0.0
 11
5947.844895161424
 21
6519.576435887763
 31
0.0
  0
ARC
  5
768B
330
1F
100
AcDbEntity
  8
Ruettler
100
AcDbCircle
 10
5935.742515717969
 20
6484.997908778611
 30
0.0
 40
10.0
100
AcDbArc
 50
244.4908787578857
 51
267.9999999997876
  0
LINE
  5
768C
330
1F
100
AcDbEntity
  8
Ruettler
100
AcDbLine
 10
5847.844895161425
 20
6520.576435887763
 30
0.0
 11
5947.844895161424
 21
6520.576435887763
 31
0.0
  0
LINE
  5
768D
330
1F
100
AcDbEntity
  8
Ruettler
100
AcDbLine
 10
5851.844895161424
 20
6530.576435887763
 30
0.0
 11
5943.844895161425
 21
6530.576435887763
 31
0.0
  0
LINE
  5
7690
330
1F
100
AcDbEntity
  8
Ruettler
100
AcDbLine
 10
5966.509279481352
 20
6464.979685869524
 30
0.0
 11
5967.272459782083
 21
6443.125061477285
 31
0.0
  0
CIRCLE
  5
7691
330
1F
100
AcDbEntity
  8
Ruettler
100
AcDbCircle
 10
5956.534757999901
 20
6464.26629872625
 30
0.0
 40
2.52
  0
LINE
  5
7692
330
1F
100
AcDbEntity
  8
Ruettler
100
AcDbLine
 10
5954.012892024088
 20
6464.154298726242
 30
0.0
 11
5955.176830166774
 21
6462.138298726246
 31
0.0
  0
LINE
  5
7693
330
1F
100
AcDbEntity
  8
Ruettler
100
AcDbLine
 10
5957.892685833036
 20
6462.138298726246
 30
0.0
 11
5959.05662397573
 21
6464.154298726242
 31
0.0
  0
CIRCLE
  5
7694
330
1F
100
AcDbEntity
  8
Ruettler
100
AcDbCircle
 10
5956.534757999901
 20
6464.26629872625
 30
0.0
 40
2.651249608365108
  0
CIRCLE
  5
7695
330
1F
100
AcDbEntity
  8
Ruettler
100
AcDbCircle
 10
5956.534757999901
 20
6464.26629872625
 30
0.0
 40
2.651249608365108
  0
LINE
  5
7696
330
1F
100
AcDbEntity
  8
Ruettler
100
AcDbLine
 10
5957.892685833036
 20
6462.138298726246
 30
0.0
 11
5959.05662397573
 21
6464.154298726242
 31
0.0
  0
LINE
  5
7697
330
1F
100
AcDbEntity
  8
Ruettler
100
AcDbLine
 10
5954.012892024088
 20
6464.154298726242
 30
0.0
 11
5955.176830166774
 21
6462.138298726246
 31
0.0
  0
CIRCLE
  5
7698
330
1F
100
AcDbEntity
  8
Ruettler
100
AcDbCircle
 10
5956.534757999901
 20
6464.26629872625
 30
0.0
 40
4.479999999999999
  0
CIRCLE
  5
7699
330
1F
100
AcDbEntity
  8
Ruettler
100
AcDbCircle
 10
5839.15503232294
 20
6464.26629872625
 30
0.0
 40
4.479999999999999
  0
ARC
  5
769A
330
1F
100
AcDbEntity
  8
Ruettler
100
AcDbCircle
 10
5977.266368052269
 20
6443.47405644431
 30
0.0
 40
10.0
100
AcDbArc
 50
182.0000000002122
 51
205.5091212416482
  0
LINE
  5
769B
330
1F
100
AcDbEntity
  8
Ruettler
100
AcDbLine
 10
5955.370819857225
 20
6462.026298726245
 30
0.0
 11
5957.698696142592
 21
6462.026298726245
 31
0.0
  0
ARC
  5
769C
330
1F
100
AcDbEntity
  8
Ruettler
100
AcDbCircle
 10
5957.698696142588
 20
6462.250298726246
 30
0.0
 40
0.224
100
AcDbArc
 50
270.0
 51
330.0000000000609
  0
ARC
  5
769D
330
1F
100
AcDbEntity
  8
Ruettler
100
AcDbCircle
 10
5955.370819857222
 20
6462.250298726246
 30
0.0
 40
0.224
100
AcDbArc
 50
209.9999999999391
 51
270.0
  0
ARC
  5
769E
330
1F
100
AcDbEntity
  8
Ruettler
100
AcDbCircle
 10
5955.370819857222
 20
6462.250298726246
 30
0.0
 40
0.224
100
AcDbArc
 50
209.9999999999391
 51
270.0
  0
ARC
  5
769F
330
1F
100
AcDbEntity
  8
Ruettler
100
AcDbCircle
 10
5957.698696142588
 20
6462.250298726246
 30
0.0
 40
0.224
100
AcDbArc
 50
270.0
 51
330.0000000000609
  0
LINE
  5
76A0
330
1F
100
AcDbEntity
  8
Ruettler
100
AcDbLine
 10
5955.370819857225
 20
6462.026298726245
 30
0.0
 11
5957.698696142592
 21
6462.026298726245
 31
0.0
  0
LINE
  5
76A1
330
1F
100
AcDbEntity
  8
Ruettler
100
AcDbLine
 10
5973.844895161424
 20
6434.576435887763
 30
0.0
 11
5973.844895161424
 21
6434.076435887762
 31
0.0
  0
ARC
  5
76A2
330
1F
100
AcDbEntity
  8
Ruettler
100
AcDbCircle
 10
5971.344895161421
 20
6434.076435887762
 30
0.0
 40
2.5
100
AcDbArc
 50
289.3738284404814
 51
0.0
  0
ARC
  5
76A3
330
1F
100
AcDbEntity
  8
Ruettler
100
AcDbCircle
 10
5973.469879323079
 20
6437.576435887762
 30
0.0
 40
6.0
100
AcDbArc
 50
248.0702478301482
 51
257.5291378902082
  0
ARC
  5
76A4
330
1F
100
AcDbEntity
  8
Ruettler
100
AcDbCircle
 10
5956.534757999901
 20
6464.26629872625
 30
0.0
 40
10.0
100
AcDbArc
 50
359.9091178420717
 51
90.09088215792833
  0
LINE
  5
76A5
330
1F
100
AcDbEntity
  8
Ruettler
100
AcDbLine
 10
5957.248145143187
 20
6474.24082020769
 30
0.0
 11
5935.393520750948
 21
6475.004000508421
 31
0.0
  0
LINE
  5
76A6
330
1F
100
AcDbEntity
  8
Ruettler
100
AcDbLine
 10
5947.844895161424
 20
6526.576435887761
 30
0.0
 11
5947.844895161424
 21
6519.576435887763
 31
0.0
  0
ARC
  5
76A7
330
1F
100
AcDbEntity
  8
Ruettler
100
AcDbCircle
 10
5943.844895161421
 20
6526.576435887761
 30
0.0
 40
4.0
100
AcDbArc
 50
0.0
 51
90.0
  0
LINE
  5
76A8
330
1F
100
AcDbEntity
  8
Ruettler
100
AcDbLine
 10
5957.698696142592
 20
6466.506298726241
 30
0.0
 11
5955.370819857225
 21
6466.506298726241
 31
0.0
  0
LINE
  5
76A9
330
1F
100
AcDbEntity
  8
Ruettler
100
AcDbLine
 10
5955.176830166774
 20
6466.39429872624
 30
0.0
 11
5954.012892024088
 21
6464.378298726244
 31
0.0
  0
LINE
  5
76AA
330
1F
100
AcDbEntity
  8
Ruettler
100
AcDbLine
 10
5959.05662397573
 20
6464.378298726244
 30
0.0
 11
5957.892685833036
 21
6466.39429872624
 31
0.0
  0
ARC
  5
76AB
330
1F
100
AcDbEntity
  8
Ruettler
100
AcDbCircle
 10
5955.370819857222
 20
6466.282298726246
 30
0.0
 40
0.224
100
AcDbArc
 50
90.0
 51
150.0000000000608
  0
ARC
  5
76AC
330
1F
100
AcDbEntity
  8
Ruettler
100
AcDbCircle
 10
5957.698696142588
 20
6466.282298726246
 30
0.0
 40
0.224
100
AcDbArc
 50
29.99999999993912
 51
90.0
  0
ARC
  5
76AD
330
1F
100
AcDbEntity
  8
Ruettler
100
AcDbCircle
 10
5958.862634285274
 20
6464.26629872625
 30
0.0
 40
0.224
100
AcDbArc
 50
330.0000000000609
 51
29.99999999993912
  0
ARC
  5
76AE
330
1F
100
AcDbEntity
  8
Ruettler
100
AcDbCircle
 10
5954.206881714529
 20
6464.26629872625
 30
0.0
 40
0.224
100
AcDbArc
 50
150.0000000000608
 51
209.9999999999391
  0
ARC
  5
76AF
330
1F
100
AcDbEntity
  8
Ruettler
100
AcDbCircle
 10
5954.206881714529
 20
6464.26629872625
 30
0.0
 40
0.224
100
AcDbArc
 50
150.0000000000608
 51
209.9999999999391
  0
ARC
  5
76B0
330
1F
100
AcDbEntity
  8
Ruettler
100
AcDbCircle
 10
5958.862634285274
 20
6464.266298726243
 30
0.0
 40
0.224
100
AcDbArc
 50
330.0000000000609
 51
29.99999999993912
  0
ARC
  5
76B1
330
1F
100
AcDbEntity
  8
Ruettler
100
AcDbCircle
 10
5957.698696142588
 20
6466.282298726246
 30
0.0
 40
0.224
100
AcDbArc
 50
29.99999999993912
 51
90.0
  0
ARC
  5
76B2
330
1F
100
AcDbEntity
  8
Ruettler
100
AcDbCircle
 10
5955.370819857222
 20
6466.282298726246
 30
0.0
 40
0.224
100
AcDbArc
 50
90.0
 51
150.0000000000608
  0
LINE
  5
76B3
330
1F
100
AcDbEntity
  8
Ruettler
100
AcDbLine
 10
5959.05662397573
 20
6464.378298726244
 30
0.0
 11
5957.892685833036
 21
6466.39429872624
 31
0.0
  0
LINE
  5
76B4
330
1F
100
AcDbEntity
  8
Ruettler
100
AcDbLine
 10
5955.176830166774
 20
6466.39429872624
 30
0.0
 11
5954.012892024088
 21
6464.378298726244
 31
0.0
  0
LINE
  5
76B5
330
1F
100
AcDbEntity
  8
Ruettler
100
AcDbLine
 10
5957.698696142592
 20
6466.506298726241
 30
0.0
 11
5955.370819857225
 21
6466.506298726241
 31
0.0
  0
ARC
  5
76B6
330
1F
100
AcDbEntity
  8
Ruettler
100
AcDbCircle
 10
5897.844895161421
 20
6405.576435887763
 30
0.0
 40
78.0
100
AcDbArc
 50
64.49087875788572
 51
76.65167016970435
  0
LINE
  5
76B7
330
1F
100
AcDbEntity
  8
Ruettler
100
AcDbLine
 10
5838.441645179663
 20
6474.24082020769
 30
0.0
 11
5860.296269571901
 21
6475.004000508421
 31
0.0
  0
ARC
  5
76B8
330
1F
100
AcDbEntity
  8
Ruettler
100
AcDbCircle
 10
5859.947274604873
 20
6484.997908778611
 30
0.0
 40
10.0
100
AcDbArc
 50
272.0000000002122
 51
295.5091212421141
  0
ARC
  5
76B9
330
1F
100
AcDbEntity
  8
Ruettler
100
AcDbCircle
 10
5897.844895161421
 20
6405.576435887763
 30
0.0
 40
78.0
100
AcDbArc
 50
100.1581684791688
 51
115.5091212421142
  0
ARC
  5
76BA
330
1F
100
AcDbEntity
  8
Ruettler
100
AcDbCircle
 10
5897.844895161421
 20
6405.576435887763
 30
0.0
 40
78.0
100
AcDbArc
 50
76.51734212048125
 51
100.1581684791688
  0
ARC
  5
76BB
330
1F
100
AcDbEntity
  8
Ruettler
100
AcDbCircle
 10
5897.844895161421
 20
6405.576435887763
 30
0.0
 40
78.0
100
AcDbArc
 50
78.42098640460488
 51
79.87211345433958
  0
LINE
  5
76BC
330
1F
100
AcDbEntity
  8
Ruettler
100
AcDbLine
 10
5847.844895161425
 20
6526.576435887761
 30
0.0
 11
5847.844895161425
 21
6519.576435887763
 31
0.0
  0
ARC
  5
76BD
330
1F
100
AcDbEntity
  8
Ruettler
100
AcDbCircle
 10
5851.844895161421
 20
6526.576435887761
 30
0.0
 40
4.0
100
AcDbArc
 50
90.0
 51
180.0
  0
LINE
  5
76BE
330
1F
100
AcDbEntity
  8
Ruettler
100
AcDbLine
 10
6001.844895161425
 20
6434.576435887763
 30
0.0
 11
6001.844895161425
 21
6434.076435887762
 31
0.0
  0
ARC
  5
76BF
330
1F
100
AcDbEntity
  8
Ruettler
100
AcDbCircle
 10
6004.344895161421
 20
6434.076435887762
 30
0.0
 40
2.5
100
AcDbArc
 50
180.0
 51
270.0
  0
LINE
  5
76C0
330
1F
100
AcDbEntity
  8
Ruettler
100
AcDbLine
 10
5973.844895161424
 20
6434.576435887763
 30
0.0
 11
6001.844895161425
 21
6434.576435887763
 31
0.0
  0
LINE
  5
76C1
330
1F
100
AcDbEntity
  8
Ruettler
100
AcDbLine
 10
5971.384000404824
 20
6431.576435887762
 30
0.0
 11
6007.844895161425
 21
6431.576435887762
 31
0.0
  0
LINE
  5
76C2
330
1F
100
AcDbEntity
  8
Ruettler
100
AcDbLine
 10
5793.844895161424
 20
6434.576435887763
 30
0.0
 11
5821.844895161425
 21
6434.576435887763
 31
0.0
  0
LINE
  5
76C3
330
1F
100
AcDbEntity
  8
Ruettler
100
AcDbLine
 10
5793.844895161424
 20
6434.576435887763
 30
0.0
 11
5793.844895161424
 21
6434.076435887762
 31
0.0
  0
ARC
  5
76C4
330
1F
100
AcDbEntity
  8
Ruettler
100
AcDbCircle
 10
5824.344895161421
 20
6434.076435887762
 30
0.0
 40
2.5
100
AcDbArc
 50
180.0
 51
250.6261715595185
  0
ARC
  5
76C5
330
1F
100
AcDbEntity
  8
Ruettler
100
AcDbCircle
 10
5822.219910999762
 20
6437.576435887762
 30
0.0
 40
6.0
100
AcDbArc
 50
270.0
 51
291.9297521698517
  0
LINE
  5
76C6
330
1F
100
AcDbEntity
  8
Ruettler
100
AcDbLine
 10
5787.844895161424
 20
6431.576435887762
 30
0.0
 11
5822.219910999765
 21
6431.576435887762
 31
0.0
  0
ARC
  5
76C7
330
1F
100
AcDbEntity
  8
Ruettler
100
AcDbCircle
 10
5791.344895161421
 20
6434.076435887762
 30
0.0
 40
2.5
100
AcDbArc
 50
270.0
 51
0.0
  0
LINE
  5
76C8
330
1F
100
AcDbEntity
  8
Ruettler
100
AcDbLine
 10
5837.991094180249
 20
6466.506298726241
 30
0.0
 11
5840.318970465624
 21
6466.506298726241
 31
0.0
  0
LINE
  5
76C9
330
1F
100
AcDbEntity
  8
Ruettler
100
AcDbLine
 10
5840.512960156075
 20
6466.39429872624
 30
0.0
 11
5841.676898298761
 21
6464.378298726244
 31
0.0
  0
LINE
  5
76CA
330
1F
100
AcDbEntity
  8
Ruettler
100
AcDbLine
 10
5836.63316634712
 20
6464.378298726244
 30
0.0
 11
5837.797104489806
 21
6466.39429872624
 31
0.0
  0
ARC
  5
76CB
330
1F
100
AcDbEntity
  8
Ruettler
100
AcDbCircle
 10
5840.31897046562
 20
6466.282298726246
 30
0.0
 40
0.224
100
AcDbArc
 50
29.99999999993912
 51
90.0
  0
ARC
  5
76CC
330
1F
100
AcDbEntity
  8
Ruettler
100
AcDbCircle
 10
5837.991094180246
 20
6466.282298726246
 30
0.0
 40
0.224
100
AcDbArc
 50
90.0
 51
150.0000000000608
  0
ARC
  5
76CD
330
1F
100
AcDbEntity
  8
Ruettler
100
AcDbCircle
 10
5836.827156037567
 20
6464.266298726243
 30
0.0
 40
0.224
100
AcDbArc
 50
150.0000000000608
 51
209.9999999999391
  0
ARC
  5
76CE
330
1F
100
AcDbEntity
  8
Ruettler
100
AcDbCircle
 10
5841.482908608313
 20
6464.26629872625
 30
0.0
 40
0.224
100
AcDbArc
 50
330.0000000000609
 51
29.99999999993912
  0
ARC
  5
76CF
330
1F
100
AcDbEntity
  8
Ruettler
100
AcDbCircle
 10
5841.482908608313
 20
6464.26629872625
 30
0.0
 40
0.224
100
AcDbArc
 50
330.0000000000609
 51
29.99999999993912
  0
ARC
  5
76D0
330
1F
100
AcDbEntity
  8
Ruettler
100
AcDbCircle
 10
5836.827156037567
 20
6464.26629872625
 30
0.0
 40
0.224
100
AcDbArc
 50
150.0000000000608
 51
209.9999999999391
  0
ARC
  5
76D1
330
1F
100
AcDbEntity
  8
Ruettler
100
AcDbCircle
 10
5837.991094180246
 20
6466.282298726246
 30
0.0
 40
0.224
100
AcDbArc
 50
90.0
 51
150.0000000000608
  0
ARC
  5
76D2
330
1F
100
AcDbEntity
  8
Ruettler
100
AcDbCircle
 10
5840.31897046562
 20
6466.282298726246
 30
0.0
 40
0.224
100
AcDbArc
 50
29.99999999993912
 51
90.0
  0
LINE
  5
76D3
330
1F
100
AcDbEntity
  8
Ruettler
100
AcDbLine
 10
5836.63316634712
 20
6464.378298726244
 30
0.0
 11
5837.797104489806
 21
6466.39429872624
 31
0.0
  0
LINE
  5
76D4
330
1F
100
AcDbEntity
  8
Ruettler
100
AcDbLine
 10
5840.512960156075
 20
6466.39429872624
 30
0.0
 11
5841.676898298761
 21
6464.378298726244
 31
0.0
  0
LINE
  5
76D5
330
1F
100
AcDbEntity
  8
Ruettler
100
AcDbLine
 10
5837.991094180249
 20
6466.506298726241
 30
0.0
 11
5840.318970465624
 21
6466.506298726241
 31
0.0
  0
LINE
  5
76D6
330
1F
100
AcDbEntity
  8
Ruettler
100
AcDbLine
 10
5829.180510841498
 20
6464.979685869524
 30
0.0
 11
5828.417330540766
 21
6443.125061477285
 31
0.0
  0
LINE
  5
76D7
330
1F
100
AcDbEntity
  8
Ruettler
100
AcDbLine
 10
5841.676898298761
 20
6464.154298726242
 30
0.0
 11
5840.512960156075
 21
6462.138298726246
 31
0.0
  0
LINE
  5
76D8
330
1F
100
AcDbEntity
  8
Ruettler
100
AcDbLine
 10
5837.797104489806
 20
6462.138298726246
 30
0.0
 11
5836.63316634712
 21
6464.154298726242
 31
0.0
  0
CIRCLE
  5
76D9
330
1F
100
AcDbEntity
  8
Ruettler
100
AcDbCircle
 10
5839.15503232294
 20
6464.26629872625
 30
0.0
 40
2.651249608365108
  0
CIRCLE
  5
76DA
330
1F
100
AcDbEntity
  8
Ruettler
100
AcDbCircle
 10
5839.15503232294
 20
6464.26629872625
 30
0.0
 40
2.651249608365108
  0
LINE
  5
76DB
330
1F
100
AcDbEntity
  8
Ruettler
100
AcDbLine
 10
5837.797104489806
 20
6462.138298726246
 30
0.0
 11
5836.63316634712
 21
6464.154298726242
 31
0.0
  0
LINE
  5
76DC
330
1F
100
AcDbEntity
  8
Ruettler
100
AcDbLine
 10
5841.676898298761
 20
6464.154298726242
 30
0.0
 11
5840.512960156075
 21
6462.138298726246
 31
0.0
  0
CIRCLE
  5
76DD
330
1F
100
AcDbEntity
  8
Ruettler
100
AcDbCircle
 10
5839.15503232294
 20
6464.26629872625
 30
0.0
 40
2.52
  0
ARC
  5
76DE
330
1F
100
AcDbEntity
  8
Ruettler
100
AcDbCircle
 10
5818.423422270566
 20
6443.47405644431
 30
0.0
 40
10.0
100
AcDbArc
 50
334.4908787583517
 51
357.9999999997876
  0
LINE
  5
76DF
330
1F
100
AcDbEntity
  8
Ruettler
100
AcDbLine
 10
5840.318970465624
 20
6462.026298726245
 30
0.0
 11
5837.991094180249
 21
6462.026298726245
 31
0.0
  0
ARC
  5
76E0
330
1F
100
AcDbEntity
  8
Ruettler
100
AcDbCircle
 10
5837.991094180246
 20
6462.250298726246
 30
0.0
 40
0.224
100
AcDbArc
 50
209.9999999999391
 51
270.0
  0
ARC
  5
76E1
330
1F
100
AcDbEntity
  8
Ruettler
100
AcDbCircle
 10
5840.31897046562
 20
6462.250298726246
 30
0.0
 40
0.224
100
AcDbArc
 50
270.0
 51
330.0000000000609
  0
ARC
  5
76E2
330
1F
100
AcDbEntity
  8
Ruettler
100
AcDbCircle
 10
5840.31897046562
 20
6462.250298726246
 30
0.0
 40
0.224
100
AcDbArc
 50
270.0
 51
330.0000000000609
  0
ARC
  5
76E3
330
1F
100
AcDbEntity
  8
Ruettler
100
AcDbCircle
 10
5837.991094180246
 20
6462.250298726246
 30
0.0
 40
0.224
100
AcDbArc
 50
209.9999999999391
 51
270.0
  0
LINE
  5
76E4
330
1F
100
AcDbEntity
  8
Ruettler
100
AcDbLine
 10
5840.318970465624
 20
6462.026298726245
 30
0.0
 11
5837.991094180249
 21
6462.026298726245
 31
0.0
  0
ARC
  5
76E5
330
1F
100
AcDbEntity
  8
Ruettler
100
AcDbCircle
 10
5839.15503232294
 20
6464.26629872625
 30
0.0
 40
10.0
100
AcDbArc
 50
89.90911784207167
 51
180.0908821579283
  0
ARC
  5
76E6
330
1F
100
AcDbEntity
  8
Ruettler
100
AcDbCircle
 10
5818.42342227058
 20
6367.678815331213
 30
0.0
 40
10.0
100
AcDbArc
 50
2.000000000212267
 51
25.50912124164826
  0
ARC
  5
76E7
330
1F
100
AcDbEntity
  8
Ruettler
100
AcDbCircle
 10
5859.94727460488
 20
6326.154962996914
 30
0.0
 40
10.0
100
AcDbArc
 50
64.49087875788572
 51
87.99999999978773
  0
ARC
  5
76E8
330
1F
100
AcDbEntity
  8
Ruettler
100
AcDbCircle
 10
5977.266368052269
 20
6367.678815331213
 30
0.0
 40
10.0
100
AcDbArc
 50
154.4908787583517
 51
177.9999999997877
  0
ARC
  5
76E9
330
1F
100
AcDbEntity
  8
Ruettler
100
AcDbCircle
 10
5935.742515717969
 20
6326.154962996914
 30
0.0
 40
10.0
100
AcDbArc
 50
92.00000000021224
 51
115.5091212421142
  0
LINE
  5
76EB
330
1F
100
AcDbEntity
  8
Ruettler
100
AcDbLine
 10
5832.844895161425
 20
6325.076435887762
 30
0.0
 11
5832.844895161425
 21
6322.576435887762
 31
0.0
  0
ARC
  5
76EC
330
1F
100
AcDbEntity
  8
Ruettler
100
AcDbCircle
 10
5835.344895161421
 20
6325.076435887762
 30
0.0
 40
2.5
100
AcDbArc
 50
90.0
 51
180.0
  0
LINE
  5
76ED
330
1F
100
AcDbEntity
  8
Ruettler
100
AcDbLine
 10
5787.844895161424
 20
6322.576435887762
 30
0.0
 11
5832.844895161425
 21
6322.576435887762
 31
0.0
  0
LINE
  5
76F5
330
1F
100
AcDbEntity
  8
Ruettler
100
AcDbLine
 10
5962.844895161424
 20
6325.076435887762
 30
0.0
 11
5962.844895161424
 21
6322.576435887762
 31
0.0
  0
ARC
  5
76F6
330
1F
100
AcDbEntity
  8
Ruettler
100
AcDbCircle
 10
5956.534757999901
 20
6346.886573049275
 30
0.0
 40
10.0
100
AcDbArc
 50
269.9091178420717
 51
0.0908821579283447
  0
LINE
  5
76F7
330
1F
100
AcDbEntity
  8
Ruettler
100
AcDbLine
 10
5957.248145143187
 20
6336.912051567828
 30
0.0
 11
5935.393520750948
 21
6336.148871267103
 31
0.0
  0
LINE
  5
76F8
330
1F
100
AcDbEntity
  8
Ruettler
100
AcDbLine
 10
5966.509279481352
 20
6346.173185906
 30
0.0
 11
5967.272459782083
 21
6368.027810298239
 31
0.0
  0
ARC
  5
76F9
330
1F
100
AcDbEntity
  8
Ruettler
100
AcDbCircle
 10
5960.344895161421
 20
6325.076435887762
 30
0.0
 40
2.5
100
AcDbArc
 50
0.0
 51
90.0
  0
CIRCLE
  5
76FA
330
1F
100
AcDbEntity
  8
Ruettler
100
AcDbCircle
 10
5956.534757999901
 20
6346.886573049275
 30
0.0
 40
4.479999999999999
  0
LINE
  5
76FB
330
1F
100
AcDbEntity
  8
Ruettler
100
AcDbLine
 10
5957.6986961426
 20
6344.646573049277
 30
0.0
 11
5955.370819857225
 21
6344.646573049277
 31
0.0
  0
LINE
  5
76FC
330
1F
100
AcDbEntity
  8
Ruettler
100
AcDbLine
 10
5955.176830166774
 20
6344.758573049277
 30
0.0
 11
5954.012892024088
 21
6346.774573049273
 31
0.0
  0
LINE
  5
76FD
330
1F
100
AcDbEntity
  8
Ruettler
100
AcDbLine
 10
5954.012892024088
 20
6346.998573049275
 30
0.0
 11
5955.176830166774
 21
6349.014573049278
 31
0.0
  0
LINE
  5
76FE
330
1F
100
AcDbEntity
  8
Ruettler
100
AcDbLine
 10
5955.370819857225
 20
6349.12657304928
 30
0.0
 11
5957.6986961426
 21
6349.12657304928
 31
0.0
  0
LINE
  5
76FF
330
1F
100
AcDbEntity
  8
Ruettler
100
AcDbLine
 10
5957.892685833043
 20
6349.014573049278
 30
0.0
 11
5959.05662397573
 21
6346.998573049275
 31
0.0
  0
LINE
  5
7700
330
1F
100
AcDbEntity
  8
Ruettler
100
AcDbLine
 10
5959.05662397573
 20
6346.774573049273
 30
0.0
 11
5957.892685833043
 21
6344.758573049277
 31
0.0
  0
ARC
  5
7701
330
1F
100
AcDbEntity
  8
Ruettler
100
AcDbCircle
 10
5955.370819857222
 20
6344.870573049278
 30
0.0
 40
0.224
100
AcDbArc
 50
209.9999999999391
 51
270.0
  0
ARC
  5
7702
330
1F
100
AcDbEntity
  8
Ruettler
100
AcDbCircle
 10
5957.698696142596
 20
6344.870573049278
 30
0.0
 40
0.224
100
AcDbArc
 50
270.0
 51
330.0000000000609
  0
ARC
  5
7703
330
1F
100
AcDbEntity
  8
Ruettler
100
AcDbCircle
 10
5958.862634285274
 20
6346.886573049282
 30
0.0
 40
0.224
100
AcDbArc
 50
330.0000000000609
 51
29.99999999993912
  0
ARC
  5
7704
330
1F
100
AcDbEntity
  8
Ruettler
100
AcDbCircle
 10
5957.698696142596
 20
6348.902573049278
 30
0.0
 40
0.224
100
AcDbArc
 50
29.99999999993912
 51
90.0
  0
ARC
  5
7705
330
1F
100
AcDbEntity
  8
Ruettler
100
AcDbCircle
 10
5955.370819857222
 20
6348.902573049278
 30
0.0
 40
0.224
100
AcDbArc
 50
90.0
 51
150.0000000000608
  0
ARC
  5
7706
330
1F
100
AcDbEntity
  8
Ruettler
100
AcDbCircle
 10
5954.206881714529
 20
6346.886573049282
 30
0.0
 40
0.224
100
AcDbArc
 50
150.0000000000608
 51
209.9999999999391
  0
CIRCLE
  5
7707
330
1F
100
AcDbEntity
  8
Ruettler
100
AcDbCircle
 10
5956.534757999901
 20
6346.886573049282
 30
0.0
 40
2.651249608365108
  0
CIRCLE
  5
7708
330
1F
100
AcDbEntity
  8
Ruettler
100
AcDbCircle
 10
5956.534757999901
 20
6346.886573049275
 30
0.0
 40
2.651249608365108
  0
ARC
  5
7709
330
1F
100
AcDbEntity
  8
Ruettler
100
AcDbCircle
 10
5954.206881714529
 20
6346.886573049275
 30
0.0
 40
0.224
100
AcDbArc
 50
150.0000000000608
 51
209.9999999999391
  0
ARC
  5
770A
330
1F
100
AcDbEntity
  8
Ruettler
100
AcDbCircle
 10
5955.370819857222
 20
6348.902573049278
 30
0.0
 40
0.224
100
AcDbArc
 50
90.0
 51
150.0000000000608
  0
ARC
  5
770B
330
1F
100
AcDbEntity
  8
Ruettler
100
AcDbCircle
 10
5957.698696142596
 20
6348.902573049278
 30
0.0
 40
0.224
100
AcDbArc
 50
29.99999999993912
 51
90.0
  0
ARC
  5
770C
330
1F
100
AcDbEntity
  8
Ruettler
100
AcDbCircle
 10
5958.862634285274
 20
6346.886573049282
 30
0.0
 40
0.224
100
AcDbArc
 50
330.0000000000609
 51
29.99999999993912
  0
ARC
  5
770D
330
1F
100
AcDbEntity
  8
Ruettler
100
AcDbCircle
 10
5957.698696142596
 20
6344.870573049278
 30
0.0
 40
0.224
100
AcDbArc
 50
270.0
 51
330.0000000000609
  0
ARC
  5
770E
330
1F
100
AcDbEntity
  8
Ruettler
100
AcDbCircle
 10
5955.370819857222
 20
6344.870573049278
 30
0.0
 40
0.224
100
AcDbArc
 50
209.9999999999391
 51
270.0
  0
LINE
  5
770F
330
1F
100
AcDbEntity
  8
Ruettler
100
AcDbLine
 10
5959.05662397573
 20
6346.774573049273
 30
0.0
 11
5957.892685833043
 21
6344.758573049277
 31
0.0
  0
LINE
  5
7710
330
1F
100
AcDbEntity
  8
Ruettler
100
AcDbLine
 10
5957.892685833043
 20
6349.014573049278
 30
0.0
 11
5959.05662397573
 21
6346.998573049275
 31
0.0
  0
LINE
  5
7711
330
1F
100
AcDbEntity
  8
Ruettler
100
AcDbLine
 10
5955.370819857225
 20
6349.12657304928
 30
0.0
 11
5957.6986961426
 21
6349.12657304928
 31
0.0
  0
LINE
  5
7712
330
1F
100
AcDbEntity
  8
Ruettler
100
AcDbLine
 10
5954.012892024088
 20
6346.998573049275
 30
0.0
 11
5955.176830166774
 21
6349.014573049278
 31
0.0
  0
LINE
  5
7713
330
1F
100
AcDbEntity
  8
Ruettler
100
AcDbLine
 10
5955.176830166774
 20
6344.758573049277
 30
0.0
 11
5954.012892024088
 21
6346.774573049273
 31
0.0
  0
LINE
  5
7714
330
1F
100
AcDbEntity
  8
Ruettler
100
AcDbLine
 10
5957.6986961426
 20
6344.646573049277
 30
0.0
 11
5955.370819857225
 21
6344.646573049277
 31
0.0
  0
CIRCLE
  5
7715
330
1F
100
AcDbEntity
  8
Ruettler
100
AcDbCircle
 10
5956.534757999901
 20
6346.886573049275
 30
0.0
 40
2.52
  0
LINE
  5
7728
330
1F
100
AcDbEntity
  8
Ruettler
100
AcDbLine
 10
5835.344895161425
 20
6327.576435887762
 30
0.0
 11
5960.344895161425
 21
6327.576435887762
 31
0.0
  0
LINE
  5
772B
330
1F
100
AcDbEntity
  8
Ruettler
100
AcDbLine
 10
5962.844895161424
 20
6322.576435887762
 30
0.0
 11
6007.844895161425
 21
6322.576435887762
 31
0.0
  0
LINE
  5
7747
330
1F
100
AcDbEntity
  8
Achsen
 48
10.0
100
AcDbLine
 10
5807.844895161425
 20
6458.071599755875
 30
0.0
 11
5807.844895161425
 21
6308.177723998468
 31
0.0
  0
LINE
  5
7748
330
1F
100
AcDbEntity
  8
Achsen
 48
10.0
100
AcDbLine
 10
5987.844895161424
 20
6458.071599755875
 30
0.0
 11
5987.844895161424
 21
6308.177723998468
 31
0.0
  0
LINE
  5
7749
330
1F
100
AcDbEntity
  8
Ruettler
100
AcDbLine
 10
5912.844895161428
 20
6519.576435887763
 30
0.0
 11
5913.078538974182
 21
6506.19099081966
 31
3.346871011691674
  0
LINE
  5
774A
330
1F
100
AcDbEntity
  8
Ruettler
100
AcDbLine
 10
5882.844895161428
 20
6519.576435887763
 30
0.0
 11
5882.611251348675
 21
6506.19099081966
 31
3.346871011691489
  0
ARC
  5
774B
330
1F
100
AcDbEntity
  8
Ruettler
100
AcDbCircle
 10
5935.742515717973
 20
6484.997908778611
 30
0.0
 40
10.0
100
AcDbArc
 50
244.4908787578857
 51
267.9999999997876
  0
ARC
  5
774C
330
1F
100
AcDbEntity
  8
Ruettler
100
AcDbCircle
 10
5882.2564378933
 20
6502.576435874178
 30
0.0
 40
1.5
100
AcDbArc
 50
150.0000000000608
 51
209.9999999999391
  0
ARC
  5
774D
330
1F
100
AcDbEntity
  8
Ruettler
100
AcDbCircle
 10
5890.050666527362
 20
6516.076435887763
 30
0.0
 40
1.5
100
AcDbArc
 50
90.0
 51
150.0000000000608
  0
ARC
  5
774E
330
1F
100
AcDbEntity
  8
Ruettler
100
AcDbCircle
 10
5905.63912379548
 20
6516.076435887763
 30
0.0
 40
1.5
100
AcDbArc
 50
29.99999999993912
 51
90.0
  0
ARC
  5
774F
330
1F
100
AcDbEntity
  8
Ruettler
100
AcDbCircle
 10
5913.433352429549
 20
6502.576435887762
 30
0.0
 40
1.5
100
AcDbArc
 50
330.0000000000609
 51
29.99999999993912
  0
ARC
  5
7750
330
1F
100
AcDbEntity
  8
Ruettler
100
AcDbCircle
 10
5905.63912379548
 20
6489.076435887762
 30
0.0
 40
1.5
100
AcDbArc
 50
270.0
 51
330.0000000000609
  0
ARC
  5
7751
330
1F
100
AcDbEntity
  8
Ruettler
100
AcDbCircle
 10
5890.050666527362
 20
6489.076435887762
 30
0.0
 40
1.5
100
AcDbArc
 50
209.9999999999391
 51
270.0
  0
LINE
  5
7752
330
1F
100
AcDbEntity
  8
Ruettler
100
AcDbLine
 10
5888.751628421686
 20
6488.326435887763
 30
0.0
 11
5880.95739978763
 21
6501.826435874178
 31
0.0
  0
LINE
  5
7753
330
1F
100
AcDbEntity
  8
Ruettler
100
AcDbLine
 10
5880.95739978763
 20
6503.326435874178
 30
0.0
 11
5888.751628421686
 21
6516.826435887762
 31
0.0
  0
LINE
  5
7754
330
1F
100
AcDbEntity
  8
Ruettler
100
AcDbLine
 10
5890.050666527366
 20
6517.576435887763
 30
0.0
 11
5905.639123795483
 21
6517.576435887763
 31
0.0
  0
LINE
  5
7755
330
1F
100
AcDbEntity
  8
Ruettler
100
AcDbLine
 10
5906.938161901163
 20
6516.826435887762
 30
0.0
 11
5914.732390535226
 21
6503.326435887763
 31
0.0
  0
LINE
  5
7756
330
1F
100
AcDbEntity
  8
Ruettler
100
AcDbLine
 10
5905.639123795483
 20
6487.576435887762
 30
0.0
 11
5890.050666527366
 21
6487.576435887762
 31
0.0
  0
LINE
  5
7757
330
1F
100
AcDbEntity
  8
Ruettler
100
AcDbLine
 10
5914.732390535226
 20
6501.826435887763
 30
0.0
 11
5906.938161901163
 21
6488.326435887763
 31
0.0
  0
CIRCLE
  5
7758
330
1F
100
AcDbEntity
  8
Ruettler
100
AcDbCircle
 10
5897.844895161425
 20
6502.576435887762
 30
0.0
 40
12.5
  0
CIRCLE
  5
7759
330
1F
100
AcDbEntity
  8
Ruettler
100
AcDbCircle
 10
5897.844895161425
 20
6502.576435887762
 30
0.0
 40
9.0
  0
CIRCLE
  5
775A
330
1F
100
AcDbEntity
  8
Ruettler
100
AcDbCircle
 10
5897.844895161425
 20
6502.576435887762
 30
0.0
 40
7.0
  0
ARC
  5
775B
330
1F
100
AcDbEntity
  8
Ruettler
100
AcDbCircle
 10
5878.262417963602
 20
6485.175029137105
 30
0.0
 40
4.0
100
AcDbArc
 50
277.2055356762038
 51
359.4377193751993
  0
ARC
  5
775C
330
1F
100
AcDbEntity
  8
Ruettler
100
AcDbCircle
 10
5897.844895161425
 20
6405.576435887763
 30
0.0
 40
78.0
100
AcDbArc
 50
78.42098640460488
 51
79.87211345433958
  0
ARC
  5
775D
330
1F
100
AcDbEntity
  8
Ruettler
100
AcDbCircle
 10
5917.427372359247
 20
6485.175029137105
 30
0.0
 40
4.0
100
AcDbArc
 50
180.5622806248007
 51
262.7944643237961
  0
ARC
  5
775E
330
1F
100
AcDbEntity
  8
Ruettler
100
AcDbCircle
 10
5897.844895161425
 20
6405.576435887763
 30
0.0
 40
78.0
100
AcDbArc
 50
76.51734212048125
 51
100.1581684791688
  0
ARC
  5
775F
330
1F
100
AcDbEntity
  8
Ruettler
100
AcDbCircle
 10
5897.844895161425
 20
6405.576435887763
 30
0.0
 40
78.0
100
AcDbArc
 50
100.1581684791688
 51
115.5091212421142
  0
ARC
  5
7760
330
1F
100
AcDbEntity
  8
Ruettler
100
AcDbCircle
 10
5859.947274604876
 20
6484.997908778611
 30
0.0
 40
10.0
100
AcDbArc
 50
272.0000000002122
 51
295.5091212421141
  0
ARC
  5
7761
330
1F
100
AcDbEntity
  8
Ruettler
100
AcDbCircle
 10
5897.844895161425
 20
6405.576435887763
 30
0.0
 40
78.0
100
AcDbArc
 50
64.49087875788572
 51
76.65167016970435
  0
LINE
  5
7762
330
1F
100
AcDbEntity
  8
Ruettler
100
AcDbLine
 10
5882.233967888942
 20
6484.576435887763
 30
0.0
 11
5913.455822433914
 21
6484.576435887763
 31
0.0
  0
LINE
  5
7763
330
1F
100
AcDbEntity
  8
Ruettler
100
AcDbLine
 10
5882.488769759768
 20
6499.174025290833
 30
5.101379614055234
 11
5882.236477689398
 21
6484.720222259608
 31
8.715380801747862
  0
LINE
  5
7764
330
1F
100
AcDbEntity
  8
Ruettler
100
AcDbLine
 10
5913.201020563088
 20
6499.174025290833
 30
5.101379614055091
 11
5913.447395118785
 21
6485.059236447965
 31
8.630614344316655
  0
LINE
  5
7768
330
1F
100
AcDbEntity
  8
Achsen
 48
10.0
100
AcDbLine
 10
5876.844895161425
 20
6502.57643588776
 30
0.0
 11
5918.844895161424
 21
6502.576435887762
 31
0.0
  0
LINE
  5
7769
330
1F
100
AcDbEntity
  8
Achsen
 48
10.0
100
AcDbLine
 10
5897.844895161425
 20
6538.646591839394
 30
0.0
 11
5897.844895161425
 21
6308.177723998468
 31
0.0
  0
LINE
  5
776A
330
1F
100
AcDbEntity
  8
Achsen
 48
10.0
100
AcDbLine
 10
5843.801358085212
 20
6459.619972963977
 30
0.0
 11
5834.508706560675
 21
6468.91262448851
 31
0.0
  0
ARC
  5
776B
330
1F
100
AcDbEntity
  8
Achsen
 48
10.0
100
AcDbCircle
 10
5897.84489516143
 20
6405.576435887763
 30
0.0
 40
83.0
100
AcDbArc
 50
130.4628548557384
 51
139.5371451441881
  0
ARC
  5
776C
330
1F
100
AcDbEntity
  8
Ruettler
100
AcDbCircle
 10
5839.155032322947
 20
6346.886573049275
 30
0.0
 40
10.0
100
AcDbArc
 50
179.9091178420716
 51
270.0908821579283
  0
LINE
  5
776D
330
1F
100
AcDbEntity
  8
Ruettler
100
AcDbLine
 10
5838.441645179663
 20
6336.912051567828
 30
0.0
 11
5860.296269571901
 21
6336.148871267103
 31
0.0
  0
LINE
  5
776E
330
1F
100
AcDbEntity
  8
Ruettler
100
AcDbLine
 10
5829.180510841498
 20
6346.173185906
 30
0.0
 11
5828.417330540766
 21
6368.027810298239
 31
0.0
  0
CIRCLE
  5
776F
330
1F
100
AcDbEntity
  8
Ruettler
100
AcDbCircle
 10
5839.155032322947
 20
6346.886573049275
 30
0.0
 40
4.479999999999999
  0
LINE
  5
7770
330
1F
100
AcDbEntity
  8
Ruettler
100
AcDbLine
 10
5837.991094180249
 20
6344.646573049277
 30
0.0
 11
5840.318970465624
 21
6344.646573049277
 31
0.0
  0
LINE
  5
7771
330
1F
100
AcDbEntity
  8
Ruettler
100
AcDbLine
 10
5840.318970465624
 20
6349.12657304928
 30
0.0
 11
5837.991094180249
 21
6349.12657304928
 31
0.0
  0
LINE
  5
7772
330
1F
100
AcDbEntity
  8
Ruettler
100
AcDbLine
 10
5837.797104489806
 20
6349.014573049278
 30
0.0
 11
5836.63316634712
 21
6346.998573049275
 31
0.0
  0
LINE
  5
7773
330
1F
100
AcDbEntity
  8
Ruettler
100
AcDbLine
 10
5836.63316634712
 20
6346.774573049273
 30
0.0
 11
5837.797104489806
 21
6344.758573049277
 31
0.0
  0
ARC
  5
7774
330
1F
100
AcDbEntity
  8
Ruettler
100
AcDbCircle
 10
5837.991094180253
 20
6344.870573049278
 30
0.0
 40
0.224
100
AcDbArc
 50
209.9999999999391
 51
270.0
  0
ARC
  5
7775
330
1F
100
AcDbEntity
  8
Ruettler
100
AcDbCircle
 10
5836.827156037575
 20
6346.886573049282
 30
0.0
 40
0.224
100
AcDbArc
 50
150.0000000000608
 51
209.9999999999391
  0
ARC
  5
7776
330
1F
100
AcDbEntity
  8
Ruettler
100
AcDbCircle
 10
5837.991094180253
 20
6348.902573049278
 30
0.0
 40
0.224
100
AcDbArc
 50
90.0
 51
150.0000000000608
  0
CIRCLE
  5
7777
330
1F
100
AcDbEntity
  8
Ruettler
100
AcDbCircle
 10
5839.155032322947
 20
6346.886573049282
 30
0.0
 40
2.651249608365108
  0
CIRCLE
  5
7778
330
1F
100
AcDbEntity
  8
Ruettler
100
AcDbCircle
 10
5839.155032322947
 20
6346.886573049275
 30
0.0
 40
2.651249608365108
  0
ARC
  5
7779
330
1F
100
AcDbEntity
  8
Ruettler
100
AcDbCircle
 10
5837.991094180253
 20
6348.902573049278
 30
0.0
 40
0.224
100
AcDbArc
 50
90.0
 51
150.0000000000608
  0
ARC
  5
777A
330
1F
100
AcDbEntity
  8
Ruettler
100
AcDbCircle
 10
5836.827156037575
 20
6346.886573049282
 30
0.0
 40
0.224
100
AcDbArc
 50
150.0000000000608
 51
209.9999999999391
  0
ARC
  5
777B
330
1F
100
AcDbEntity
  8
Ruettler
100
AcDbCircle
 10
5837.991094180253
 20
6344.870573049278
 30
0.0
 40
0.224
100
AcDbArc
 50
209.9999999999391
 51
270.0
  0
LINE
  5
777C
330
1F
100
AcDbEntity
  8
Ruettler
100
AcDbLine
 10
5836.63316634712
 20
6346.774573049273
 30
0.0
 11
5837.797104489806
 21
6344.758573049277
 31
0.0
  0
LINE
  5
777D
330
1F
100
AcDbEntity
  8
Ruettler
100
AcDbLine
 10
5837.797104489806
 20
6349.014573049278
 30
0.0
 11
5836.63316634712
 21
6346.998573049275
 31
0.0
  0
LINE
  5
777E
330
1F
100
AcDbEntity
  8
Ruettler
100
AcDbLine
 10
5840.318970465624
 20
6349.12657304928
 30
0.0
 11
5837.991094180249
 21
6349.12657304928
 31
0.0
  0
LINE
  5
777F
330
1F
100
AcDbEntity
  8
Ruettler
100
AcDbLine
 10
5837.991094180249
 20
6344.646573049277
 30
0.0
 11
5840.318970465624
 21
6344.646573049277
 31
0.0
  0
CIRCLE
  5
7780
330
1F
100
AcDbEntity
  8
Ruettler
100
AcDbCircle
 10
5839.155032322947
 20
6346.886573049275
 30
0.0
 40
2.52
  0
LINE
  5
7781
330
1F
100
AcDbEntity
  8
Achsen
 48
10.0
100
AcDbLine
 10
5951.88843223764
 20
6351.532898811545
 30
0.0
 11
5961.181083762174
 21
6342.240247287012
 31
0.0
  0
ARC
  5
7782
330
1F
100
AcDbEntity
  8
Achsen
 48
10.0
100
AcDbCircle
 10
5897.844895161421
 20
6405.576435887763
 30
0.0
 40
83.00000000000004
100
AcDbArc
 50
310.4628548557383
 51
319.5371451441881
  0
LINE
  5
7783
330
1F
100
AcDbEntity
  8
Achsen
 48
10.0
100
AcDbLine
 10
5843.801358085212
 20
6351.532898811545
 30
0.0
 11
5834.508706560675
 21
6342.240247287012
 31
0.0
  0
ARC
  5
7784
330
1F
100
AcDbEntity
  8
Achsen
 48
10.0
100
AcDbCircle
 10
5897.84489516143
 20
6405.576435887763
 30
0.0
 40
83.00000000000004
100
AcDbArc
 50
220.4628548558118
 51
229.5371451442615
  0
LINE
  5
7785
330
1F
100
AcDbEntity
  8
Achsen
 48
10.0
100
AcDbLine
 10
5982.990884536427
 20
6405.576435887763
 30
0.0
 11
5812.698905786422
 21
6405.576435887763
 31
0.0
  0
ARC
  5
7786
330
1F
100
AcDbEntity
  8
Ruettler
100
AcDbCircle
 10
5533.028255128851
 20
6405.576435887756
 30
0.0
 40
281.4999999999999
100
AcDbArc
 50
166.1742083790269
 51
193.825791620973
  0
LINE
  5
7787
330
1F
100
AcDbEntity
  8
Ruettler
100
AcDbLine
 10
5268.908963898544
 20
6331.076435887755
 30
0.0
 11
5377.028255128849
 21
6331.076435887762
 31
0.0
  0
LINE
  5
7788
330
1F
100
AcDbEntity
  8
Ruettler
100
AcDbLine
 10
5379.52825512885
 20
6327.576435887762
 30
0.0
 11
5379.52825512885
 21
6330.076435887762
 31
0.0
  0
LINE
  5
7789
330
1F
100
AcDbEntity
  8
Ruettler
100
AcDbLine
 10
5378.02825512885
 20
6327.576435887762
 30
0.0
 11
5379.52825512885
 21
6327.576435887762
 31
0.0
  0
LINE
  5
778A
330
1F
100
AcDbEntity
  8
Ruettler
100
AcDbLine
 10
5378.02825512885
 20
6327.576435887762
 30
0.0
 11
5378.02825512885
 21
6483.576435887762
 31
0.0
  0
ARC
  5
778B
330
1F
100
AcDbEntity
  8
Ruettler
100
AcDbCircle
 10
5377.028255128849
 20
6330.076435887762
 30
0.0
 40
1.0
100
AcDbArc
 50
0.0
 51
90.0
  0
LINE
  5
778C
330
1F
100
AcDbEntity
  8
Ruettler
100
AcDbLine
 10
5379.52825512885
 20
6327.576435887762
 30
0.0
 11
5379.52825512885
 21
6329.276435887762
 31
0.0
  0
ARC
  5
778D
330
1F
100
AcDbEntity
  8
Ruettler
100
AcDbCircle
 10
5268.908963898544
 20
6340.576435887755
 30
0.0
 40
9.5
100
AcDbArc
 50
193.825791620973
 51
270.0
  0
LINE
  5
778E
330
1F
100
AcDbEntity
  8
Ruettler
100
AcDbLine
 10
5268.908963898544
 20
6480.076435887756
 30
0.0
 11
5377.028255128849
 21
6480.076435887763
 31
0.0
  0
LINE
  5
778F
330
1F
100
AcDbEntity
  8
Ruettler
100
AcDbLine
 10
5379.52825512885
 20
6481.076435887762
 30
0.0
 11
5379.52825512885
 21
6483.576435887762
 31
0.0
  0
ARC
  5
7790
330
1F
100
AcDbEntity
  8
Ruettler
100
AcDbCircle
 10
5377.028255128849
 20
6481.076435887762
 30
0.0
 40
1.0
100
AcDbArc
 50
270.0
 51
0.0
  0
LINE
  5
7791
330
1F
100
AcDbEntity
  8
Ruettler
100
AcDbLine
 10
5378.02825512885
 20
6483.576435887762
 30
0.0
 11
5379.52825512885
 21
6483.576435887762
 31
0.0
  0
LINE
  5
7792
330
1F
100
AcDbEntity
  8
Ruettler
100
AcDbLine
 10
5379.52825512885
 20
6327.576435887762
 30
0.0
 11
5379.52825512885
 21
6483.576435887762
 31
0.0
  0
ARC
  5
7793
330
1F
100
AcDbEntity
  8
Ruettler
100
AcDbCircle
 10
5268.908963898544
 20
6470.576435887754
 30
0.0
 40
9.5
100
AcDbArc
 50
90.0
 51
166.1742083790269
  0
LINE
  5
7794
330
1F
100
AcDbEntity
  8
Ruettler
100
AcDbLine
 10
5408.52825512885
 20
6477.576435887762
 30
0.0
 11
5408.52825512885
 21
6483.576435887762
 31
0.0
  0
LINE
  5
7795
330
1F
100
AcDbEntity
  8
Ruettler
100
AcDbLine
 10
5408.52825512885
 20
6483.576435887762
 30
0.0
 11
5408.52825512885
 21
6327.576435887762
 31
0.0
  0
LINE
  5
7796
330
1F
100
AcDbEntity
  8
Ruettler
100
AcDbLine
 10
5408.528255128851
 20
6327.576435887762
 30
0.0
 11
5379.528255128851
 21
6327.576435887762
 31
0.0
  0
LINE
  5
7797
330
1F
100
AcDbEntity
  8
Ruettler
100
AcDbLine
 10
5408.528255128851
 20
6327.576435887762
 30
0.0
 11
5379.528255128851
 21
6327.576435887762
 31
0.0
  0
LINE
  5
7798
330
1F
100
AcDbEntity
  8
Ruettler
100
AcDbLine
 10
5408.528255128851
 20
6483.576435887762
 30
0.0
 11
5379.528255128851
 21
6483.576435887762
 31
0.0
  0
ARC
  5
7799
330
1F
100
AcDbEntity
  8
Ruettler
100
AcDbCircle
 10
5427.843993243143
 20
6493.576435887762
 30
0.0
 40
10.0
100
AcDbArc
 50
270.0
 51
358.5000000000102
  0
LINE
  5
779A
330
1F
100
AcDbEntity
  8
Ruettler
100
AcDbLine
 10
5438.528255128849
 20
6519.576435887763
 30
0.0
 11
5437.840566492898
 21
6493.314666404683
 31
0.0
  0
LINE
  5
779B
330
1F
100
AcDbEntity
  8
Ruettler
100
AcDbLine
 10
5517.528255128849
 20
6431.576435887762
 30
0.0
 11
5517.528255128849
 21
6322.576435887762
 31
0.0
  0
LWPOLYLINE
  5
779C
330
1F
100
AcDbEntity
  8
DIN-Teile
100
AcDbPolyline
 90
        4
 70
     0
 43
0.0
 10
5526.28325512885
 20
6435.17643588776
 42
0.4142135623730951
 10
5526.883255128849
 20
6434.576435887763
 10
5548.173255128849
 20
6434.576435887763
 42
0.4142135623730951
 10
5548.773255128848
 20
6435.17643588776
  0
LINE
  5
779D
330
1F
100
AcDbEntity
  8
Ruettler
100
AcDbLine
 10
5551.528255128849
 20
6434.576435887763
 30
0.0
 11
5551.528255128849
 21
6434.076435887762
 31
0.0
  0
LINE
  5
779E
330
1F
100
AcDbEntity
  8
DIN-Teile
100
AcDbLine
 10
5530.598255128849
 20
6435.17643588776
 30
0.0
 11
5530.598255128849
 21
6443.387435862255
 31
0.0
  0
LINE
  5
779F
330
1F
100
AcDbEntity
  8
DIN-Teile
100
AcDbLine
 10
5527.133255128848
 20
6444.576435887762
 30
0.0
 11
5547.92325512885
 21
6444.576435887762
 31
0.0
  0
LWPOLYLINE
  5
77A0
330
1F
100
AcDbEntity
  8
DIN-Teile
100
AcDbPolyline
 90
        6
 70
     1
 43
0.0
 10
5523.668255128849
 20
6435.17643588776
 10
5551.388255128849
 20
6435.17643588776
 10
5551.388255128849
 20
6443.387435862255
 42
0.3431457505076199
 10
5544.45825512885
 20
6443.387435862255
 42
0.17157287525381
 10
5530.598255128849
 20
6443.387435862255
 42
0.3431457505076199
 10
5523.668255128849
 20
6443.387435862255
  0
LINE
  5
77A1
330
1F
100
AcDbEntity
  8
DIN-Teile
100
AcDbLine
 10
5544.45825512885
 20
6435.17643588776
 30
0.0
 11
5544.45825512885
 21
6443.387435862255
 31
0.0
  0
LINE
  5
77A2
330
1F
100
AcDbEntity
  8
Ruettler
100
AcDbLine
 10
5523.528255128849
 20
6434.576435887763
 30
0.0
 11
5551.528255128849
 21
6434.576435887763
 31
0.0
  0
LINE
  5
77A3
330
1F
100
AcDbEntity
  8
Ruettler
100
AcDbLine
 10
5523.528255128849
 20
6434.576435887763
 30
0.0
 11
5523.528255128849
 21
6434.076435887762
 31
0.0
  0
ARC
  5
77A4
330
1F
100
AcDbEntity
  8
Ruettler
100
AcDbCircle
 10
5554.028255128845
 20
6434.076435887762
 30
0.0
 40
2.5
100
AcDbArc
 50
180.0
 51
250.6261715595185
  0
LINE
  5
77A5
330
1F
100
AcDbEntity
  8
Ruettler
100
AcDbLine
 10
5517.528255128849
 20
6431.576435887762
 30
0.0
 11
5557.52825512885
 21
6431.576435887762
 31
0.0
  0
ARC
  5
77A6
330
1F
100
AcDbEntity
  8
Ruettler
100
AcDbCircle
 10
5521.028255128846
 20
6434.076435887762
 30
0.0
 40
2.5
100
AcDbArc
 50
270.0
 51
0.0
  0
LINE
  5
77A7
330
1F
100
AcDbEntity
  8
Achsen
 48
10.0
100
AcDbLine
 10
5537.528255128849
 20
6458.071599755875
 30
0.0
 11
5537.528255128849
 21
6308.177723998468
 31
0.0
  0
LINE
  5
77A8
330
1F
100
AcDbEntity
  8
Ruettler
100
AcDbLine
 10
5557.52825512885
 20
6431.576435887762
 30
0.0
 11
5557.52825512885
 21
6322.576435887762
 31
0.0
  0
ARC
  5
77A9
330
1F
100
AcDbEntity
  8
Achsen
 48
10.0
100
AcDbCircle
 10
5487.528255128849
 20
6154.105506808936
 30
0.0
 40
53.0
100
AcDbArc
 50
39.06054810321533
 51
50.9394518967442
  0
LINE
  5
77AA
330
1F
100
AcDbEntity
  8
Achsen
 48
10.0
100
AcDbLine
 10
5521.121711163718
 20
6187.698962843803
 30
0.0
 11
5528.888117899756
 21
6195.465369579842
 31
0.0
  0
CIRCLE
  5
77AB
330
1F
100
AcDbEntity
  8
Ruettler
100
AcDbCircle
 10
5525.004914531737
 20
6191.582166211823
 30
0.0
 40
3.0
  0
CIRCLE
  5
77AC
330
1F
100
AcDbEntity
  8
Ruettler
100
AcDbCircle
 10
5450.051595725962
 20
6191.582166211823
 30
0.0
 40
3.0
  0
CIRCLE
  5
77AD
330
1F
100
AcDbEntity
  8
Ruettler
100
AcDbCircle
 10
5450.051595725962
 20
6116.628847406049
 30
0.0
 40
3.0
  0
CIRCLE
  5
77AE
330
1F
100
AcDbEntity
  8
Ruettler
100
AcDbCircle
 10
5525.004914531737
 20
6116.628847406049
 30
0.0
 40
3.0
  0
ARC
  5
77AF
330
1F
100
AcDbEntity
  8
Achsen
 48
10.0
100
AcDbCircle
 10
5487.528255128849
 20
6079.152188003162
 30
0.0
 40
53.0
100
AcDbArc
 50
39.06054810321533
 51
50.9394518967442
  0
LINE
  5
77B0
330
1F
100
AcDbEntity
  8
Achsen
 48
10.0
100
AcDbLine
 10
5521.121711163718
 20
6112.74564403803
 30
0.0
 11
5528.888117899756
 21
6120.512050774069
 31
0.0
  0
ARC
  5
77B1
330
1F
100
AcDbEntity
  8
Achsen
 48
10.0
100
AcDbCircle
 10
5412.574936323077
 20
6079.152188003162
 30
0.0
 40
53.0
100
AcDbArc
 50
39.06054810321533
 51
50.9394518967442
  0
LINE
  5
77B2
330
1F
100
AcDbEntity
  8
Achsen
 48
10.0
100
AcDbLine
 10
5446.168392357946
 20
6112.74564403803
 30
0.0
 11
5453.934799093982
 21
6120.512050774069
 31
0.0
  0
ARC
  5
77B3
330
1F
100
AcDbEntity
  8
Achsen
 48
10.0
100
AcDbCircle
 10
5412.574936323077
 20
6154.105506808936
 30
0.0
 40
53.0
100
AcDbArc
 50
39.06054810321533
 51
50.9394518967442
  0
LINE
  5
77B4
330
1F
100
AcDbEntity
  8
Achsen
 48
10.0
100
AcDbLine
 10
5446.168392357946
 20
6187.698962843803
 30
0.0
 11
5453.934799093982
 21
6195.465369579842
 31
0.0
  0
LINE
  5
77B7
330
1F
100
AcDbEntity
  8
Ruettler
100
AcDbLine
 10
5457.528255128847
 20
6431.576435887762
 30
0.0
 11
5457.528255128847
 21
6322.576435887762
 31
0.0
  0
LWPOLYLINE
  5
77B8
330
1F
100
AcDbEntity
  8
DIN-Teile
100
AcDbPolyline
 90
        4
 70
     0
 43
0.0
 10
5448.773255128847
 20
6435.17643588776
 42
-0.4142135623730951
 10
5448.173255128848
 20
6434.576435887763
 10
5426.883255128847
 20
6434.576435887763
 42
-0.4142135623730951
 10
5426.283255128848
 20
6435.17643588776
  0
LINE
  5
77B9
330
1F
100
AcDbEntity
  8
Ruettler
100
AcDbLine
 10
5423.528255128847
 20
6434.576435887763
 30
0.0
 11
5423.528255128847
 21
6434.076435887762
 31
0.0
  0
LINE
  5
77BA
330
1F
100
AcDbEntity
  8
DIN-Teile
100
AcDbLine
 10
5444.458255128847
 20
6435.17643588776
 30
0.0
 11
5444.458255128847
 21
6443.387435862255
 31
0.0
  0
LINE
  5
77BB
330
1F
100
AcDbEntity
  8
DIN-Teile
100
AcDbLine
 10
5447.923255128848
 20
6444.576435887762
 30
0.0
 11
5427.133255128847
 21
6444.576435887762
 31
0.0
  0
LWPOLYLINE
  5
77BC
330
1F
100
AcDbEntity
  8
DIN-Teile
100
AcDbPolyline
 90
        6
 70
     1
 43
0.0
 10
5451.388255128848
 20
6435.17643588776
 10
5423.668255128847
 20
6435.17643588776
 10
5423.668255128847
 20
6443.387435862255
 42
-0.3431457505076199
 10
5430.598255128847
 20
6443.387435862255
 42
-0.17157287525381
 10
5444.458255128847
 20
6443.387435862255
 42
-0.3431457505076199
 10
5451.388255128848
 20
6443.387435862255
  0
LINE
  5
77BD
330
1F
100
AcDbEntity
  8
DIN-Teile
100
AcDbLine
 10
5430.598255128847
 20
6435.17643588776
 30
0.0
 11
5430.598255128847
 21
6443.387435862255
 31
0.0
  0
LINE
  5
77BE
330
1F
100
AcDbEntity
  8
Ruettler
100
AcDbLine
 10
5451.528255128847
 20
6434.576435887763
 30
0.0
 11
5423.528255128847
 21
6434.576435887763
 31
0.0
  0
LINE
  5
77BF
330
1F
100
AcDbEntity
  8
Ruettler
100
AcDbLine
 10
5451.528255128847
 20
6434.576435887763
 30
0.0
 11
5451.528255128847
 21
6434.076435887762
 31
0.0
  0
ARC
  5
77C0
330
1F
100
AcDbEntity
  8
Ruettler
100
AcDbCircle
 10
5421.028255128852
 20
6434.076435887762
 30
0.0
 40
2.499999999999999
100
AcDbArc
 50
289.3738284404814
 51
0.0
  0
LINE
  5
77C1
330
1F
100
AcDbEntity
  8
Ruettler
100
AcDbLine
 10
5457.528255128847
 20
6431.576435887762
 30
0.0
 11
5417.528255128847
 21
6431.576435887762
 31
0.0
  0
ARC
  5
77C2
330
1F
100
AcDbEntity
  8
Ruettler
100
AcDbCircle
 10
5454.028255128851
 20
6434.076435887762
 30
0.0
 40
2.499999999999999
100
AcDbArc
 50
180.0
 51
270.0
  0
LINE
  5
77C3
330
1F
100
AcDbEntity
  8
Achsen
 48
10.0
100
AcDbLine
 10
5437.528255128848
 20
6458.071599755875
 30
0.0
 11
5437.528255128848
 21
6308.177723998468
 31
0.0
  0
LINE
  5
77C4
330
1F
100
AcDbEntity
  8
Ruettler
100
AcDbLine
 10
5417.528255128847
 20
6431.576435887762
 30
0.0
 11
5417.528255128847
 21
6322.576435887762
 31
0.0
  0
LINE
  5
77C5
330
1F
100
AcDbEntity
  8
Ruettler
100
AcDbLine
 10
5528.811474722338
 20
6457.922583947608
 30
0.0
 11
5487.528255128849
 21
6457.922583947608
 31
0.0
  0
LINE
  5
77C6
330
1F
100
AcDbEntity
  8
Ruettler
100
AcDbLine
 10
5538.811474722339
 20
6479.830164986279
 30
0.0
 11
5538.811474722339
 21
6467.922583947609
 31
0.0
  0
ARC
  5
77C7
330
1F
100
AcDbEntity
  8
Ruettler
100
AcDbCircle
 10
5528.811474722338
 20
6467.922583947608
 30
0.0
 40
10.0
100
AcDbArc
 50
270.0
 51
0.0
  0
LINE
  5
77C8
330
1F
100
AcDbEntity
  8
Ruettler
100
AcDbLine
 10
5446.245035535361
 20
6457.922583947608
 30
0.0
 11
5487.528255128851
 21
6457.922583947608
 31
0.0
  0
LINE
  5
77C9
330
1F
100
AcDbEntity
  8
Ruettler
100
AcDbLine
 10
5436.245035535361
 20
6479.830164986279
 30
0.0
 11
5436.245035535361
 21
6467.922583947609
 31
0.0
  0
ARC
  5
77CA
330
1F
100
AcDbEntity
  8
Ruettler
100
AcDbCircle
 10
5446.245035535361
 20
6467.922583947608
 30
0.0
 40
9.999999999999998
100
AcDbArc
 50
180.0
 51
270.0
  0
CIRCLE
  5
77FE
330
1F
100
AcDbEntity
  8
Ruettler
100
AcDbCircle
 10
5897.844895161421
 20
6405.576435887763
 30
0.0
 40
74.5
  0
LINE
  5
7B1B
330
1F
100
AcDbEntity
  8
0
370
    18
100
AcDbLine
 10
5482.644483088857
 20
6494.01517524788
 30
0.0
 11
5481.38329724159
 21
6494.01517524788
 31
0.0
  0
LINE
  5
7B1C
330
1F
100
AcDbEntity
  8
0
370
    18
100
AcDbLine
 10
5481.510723497672
 20
6495.212434946413
 30
0.0
 11
5483.014112105117
 21
6495.212434946413
 31
0.0
  0
LINE
  5
7B1D
330
1F
100
AcDbEntity
  8
0
370
    18
100
AcDbLine
 10
5481.949792897522
 20
6496.016497335924
 30
0.0
 11
5482.973472518263
 21
6496.016497335924
 31
0.0
  0
LINE
  5
7B1E
330
1F
100
AcDbEntity
  8
0
370
    18
100
AcDbLine
 10
5481.949792897522
 20
6496.016497335924
 30
0.0
 11
5482.886749279773
 21
6497.732334030165
 31
0.0
  0
LINE
  5
7B1F
330
1F
100
AcDbEntity
  8
0
370
    18
100
AcDbLine
 10
5484.157454741178
 20
6498.388416905227
 30
0.0
 11
5481.647015901576
 21
6498.388416905227
 31
0.0
  0
LINE
  5
7B20
330
1F
100
AcDbEntity
  8
0
370
    18
100
AcDbLine
 10
5482.872306927028
 20
6490.310807946288
 30
0.0
 11
5482.165171620579
 21
6492.071943182129
 31
0.0
  0
LWPOLYLINE
  5
7B21
330
1F
100
AcDbEntity
  8
0
  6
Continuous
100
AcDbPolyline
 90
        4
 70
     1
 43
0.0
 10
5463.049562923218
 20
6484.99953673097
 10
5512.006947334482
 20
6484.99953673097
 10
5512.006947334482
 20
6501.986761561425
 10
5463.049562923218
 20
6501.986761561425
  0
LINE
  5
7B22
330
1F
100
AcDbEntity
  8
0
370
    18
100
AcDbLine
 10
5482.165171620579
 20
6492.071943182129
 30
0.0
 11
5481.693276856373
 21
6490.310807946288
 31
0.0
  0
LINE
  5
7B23
330
1F
100
AcDbEntity
  8
0
370
    18
100
AcDbLine
 10
5480.921420674492
 20
6494.01517524788
 30
0.0
 11
5479.928838447563
 21
6490.310807946288
 31
0.0
  0
LINE
  5
7B24
330
1F
100
AcDbEntity
  8
0
370
    18
100
AcDbLine
 10
5481.38329724159
 20
6494.01517524788
 30
0.0
 11
5480.39071501466
 21
6490.310807946288
 31
0.0
  0
ARC
  5
7B25
330
1F
100
AcDbEntity
  8
0
370
    18
100
AcDbCircle
 10
5476.50038302669
 20
6491.413520277406
 30
0.0
 40
0.3835043230827479
100
AcDbArc
 50
171.2985646492441
 51
270.0
  0
ARC
  5
7B26
330
1F
100
AcDbEntity
  8
0
370
    18
100
AcDbCircle
 10
5475.655996110063
 20
6491.325595911956
 30
0.0
 40
0.9587608077068694
100
AcDbArc
 50
171.020015179947
 51
262.0635437036924
  0
ARC
  5
7B27
330
1F
100
AcDbEntity
  8
0
370
    18
100
AcDbCircle
 10
5476.542073248527
 20
6491.490221142022
 30
0.0
 40
0.4602051876992975
100
AcDbArc
 50
270.0
 51
334.2263645027551
  0
LINE
  5
7B28
330
1F
100
AcDbEntity
  8
0
370
    18
100
AcDbLine
 10
5478.127547926296
 20
6490.310807946288
 30
0.0
 11
5478.633135236279
 21
6492.197685474803
 31
0.0
  0
LINE
  5
7B29
330
1F
100
AcDbEntity
  8
0
370
    18
100
AcDbLine
 10
5479.579155543703
 20
6494.01517524788
 30
0.0
 11
5478.586573316774
 21
6490.310807946288
 31
0.0
  0
LINE
  5
7B2A
330
1F
100
AcDbEntity
  8
0
370
    18
100
AcDbLine
 10
5473.96589419515
 20
6490.310807946288
 30
0.0
 11
5474.958476422079
 21
6494.01517524788
 31
0.0
  0
LINE
  5
7B2B
330
1F
100
AcDbEntity
  8
0
370
    18
100
AcDbLine
 10
5469.679251672227
 20
6490.310807946288
 30
0.0
 11
5469.95199397253
 21
6491.328696068386
 31
0.0
  0
LINE
  5
7B2C
330
1F
100
AcDbEntity
  8
0
370
    18
100
AcDbLine
 10
5471.984714148395
 20
6492.071943182129
 30
0.0
 11
5471.512819384189
 21
6490.310807946288
 31
0.0
  0
LINE
  5
7B2D
330
1F
100
AcDbEntity
  8
0
370
    18
100
AcDbLine
 10
5472.691849454844
 20
6490.310807946288
 30
0.0
 11
5471.984714148395
 21
6492.071943182129
 31
0.0
  0
LINE
  5
7B2E
330
1F
100
AcDbEntity
  8
0
370
    18
100
AcDbLine
 10
5471.202839769407
 20
6494.01517524788
 30
0.0
 11
5470.210257542476
 21
6490.310807946288
 31
0.0
  0
LINE
  5
7B2F
330
1F
100
AcDbEntity
  8
0
370
    18
100
AcDbLine
 10
5466.876493957407
 20
6494.01517524788
 30
0.0
 11
5465.883911730477
 21
6490.310807946288
 31
0.0
  0
LINE
  5
7B30
330
1F
100
AcDbEntity
  8
0
370
    18
100
AcDbLine
 10
5470.210257542476
 20
6490.310807946288
 30
0.0
 11
5471.512819384189
 21
6490.310807946288
 31
0.0
  0
LINE
  5
7B31
330
1F
100
AcDbEntity
  8
0
370
    18
100
AcDbLine
 10
5465.883911730478
 20
6490.310807946288
 30
0.0
 11
5469.679251672227
 21
6490.310807946288
 31
0.0
  0
ARC
  5
7B32
330
1F
100
AcDbEntity
  8
0
370
    18
100
AcDbCircle
 10
5476.506604613439
 20
6497.427081810973
 30
0.0
 40
7.119253077153191
100
AcDbArc
 50
262.0635437036924
 51
271.6576250419807
  0
LINE
  5
7B33
330
1F
100
AcDbEntity
  8
0
370
    18
100
AcDbLine
 10
5478.127547926296
 20
6490.310807946288
 30
0.0
 11
5476.398503595158
 21
6490.310807946288
 31
0.0
  0
LINE
  5
7B34
330
1F
100
AcDbEntity
  8
0
370
    18
100
AcDbLine
 10
5476.50038302669
 20
6491.030015954322
 30
0.0
 11
5476.542073248527
 21
6491.030015954322
 31
0.0
  0
LINE
  5
7B35
330
1F
100
AcDbEntity
  8
0
370
    18
100
AcDbLine
 10
5472.691849454844
 20
6490.310807946288
 30
0.0
 11
5473.96589419515
 21
6490.310807946288
 31
0.0
  0
LINE
  5
7B36
330
1F
100
AcDbEntity
  8
0
370
    18
100
AcDbLine
 10
5480.39071501466
 20
6490.310807946288
 30
0.0
 11
5481.693276856373
 21
6490.310807946288
 31
0.0
  0
ARC
  5
7B37
330
1F
100
AcDbEntity
  8
0
370
    18
100
AcDbCircle
 10
5477.302253923435
 20
6491.461320915536
 30
0.0
 40
1.150512969248243
100
AcDbArc
 50
270.0
 51
270.0
  0
LINE
  5
7B38
330
1F
100
AcDbEntity
  8
0
370
    18
100
AcDbLine
 10
5478.586573316774
 20
6490.310807946288
 30
0.0
 11
5479.928838447563
 21
6490.310807946288
 31
0.0
  0
LWPOLYLINE
  5
7B39
330
1F
100
AcDbEntity
  8
0
370
    18
100
AcDbPolyline
 90
        4
 70
     1
 43
0.0
 10
5467.729150739835
 20
6496.966419285897
 10
5467.133601403676
 20
6494.743798904941
 10
5470.58514031142
 20
6494.743798904941
 10
5471.180689647579
 20
6496.966419285897
  0
LINE
  5
7B3A
330
1F
100
AcDbEntity
  8
0
370
    18
100
AcDbLine
 10
5470.398746725809
 20
6492.996000042047
 30
0.0
 11
5470.671833899157
 21
6494.01517524788
 31
0.0
  0
LINE
  5
7B3B
330
1F
100
AcDbEntity
  8
0
370
    18
100
AcDbLine
 10
5470.398746725809
 20
6492.996000042047
 30
0.0
 11
5467.895692658404
 21
6492.996000042047
 31
0.0
  0
LINE
  5
7B3C
330
1F
100
AcDbEntity
  8
0
370
    18
100
AcDbLine
 10
5470.671833899157
 20
6494.01517524788
 30
0.0
 11
5466.876493957407
 21
6494.01517524788
 31
0.0
  0
LINE
  5
7B3D
330
1F
100
AcDbEntity
  8
0
370
    18
100
AcDbLine
 10
5470.274699651059
 20
6492.533050056552
 30
0.0
 11
5467.781921551022
 21
6492.533050056552
 31
0.0
  0
LINE
  5
7B3E
330
1F
100
AcDbEntity
  8
0
370
    18
100
AcDbLine
 10
5467.459215872491
 20
6491.328696068386
 30
0.0
 11
5469.962269939895
 21
6491.328696068386
 31
0.0
  0
LINE
  5
7B3F
330
1F
100
AcDbEntity
  8
0
370
    18
100
AcDbLine
 10
5467.583527496111
 20
6491.792633363705
 30
0.0
 11
5470.076305596148
 21
6491.792633363705
 31
0.0
  0
LINE
  5
7B40
330
1F
100
AcDbEntity
  8
0
370
    18
100
AcDbLine
 10
5467.583527496111
 20
6491.792633363705
 30
0.0
 11
5467.459215872491
 21
6491.328696068386
 31
0.0
  0
LINE
  5
7B41
330
1F
100
AcDbEntity
  8
0
370
    18
100
AcDbLine
 10
5467.583527496111
 20
6491.792633363705
 30
0.0
 11
5467.469491839857
 21
6491.367046500695
 31
0.0
  0
LINE
  5
7B42
330
1F
100
AcDbEntity
  8
0
370
    18
100
AcDbLine
 10
5470.076305596148
 20
6491.792633363705
 30
0.0
 11
5470.274699651059
 21
6492.533050056552
 31
0.0
  0
LINE
  5
7B43
330
1F
100
AcDbEntity
  8
0
370
    18
100
AcDbLine
 10
5467.905968625771
 20
6492.996000042047
 30
0.0
 11
5467.781921551022
 21
6492.533050056552
 31
0.0
  0
LINE
  5
7B44
330
1F
100
AcDbEntity
  8
0
370
    18
100
AcDbLine
 10
5475.561803011019
 20
6494.684049603636
 30
0.0
 11
5476.864364852731
 21
6494.684049603636
 31
0.0
  0
LINE
  5
7B45
330
1F
100
AcDbEntity
  8
0
370
    18
100
AcDbLine
 10
5476.554385237949
 20
6498.388416905227
 30
0.0
 11
5475.561803011019
 21
6494.684049603636
 31
0.0
  0
ARC
  5
7B46
330
1F
100
AcDbEntity
  8
0
370
    18
100
AcDbCircle
 10
5476.911784792153
 20
6492.592326150068
 30
0.0
 40
0.4602051876992975
100
AcDbArc
 50
93.02614479233071
 51
158.0969939507821
  0
ARC
  5
7B47
330
1F
100
AcDbEntity
  8
0
370
    18
100
AcDbCircle
 10
5477.51965199558
 20
6479.548079163079
 30
0.0
 40
14.46807838019826
100
AcDbArc
 50
83.51735091136767
 51
95.92334440423832
  0
LINE
  5
7B48
330
1F
100
AcDbEntity
  8
0
370
    18
100
AcDbLine
 10
5476.168239410537
 20
6498.388416905227
 30
0.0
 11
5474.509241391657
 21
6496.488117725046
 31
0.0
  0
LINE
  5
7B49
330
1F
100
AcDbEntity
  8
0
370
    18
100
AcDbLine
 10
5476.168239410537
 20
6498.388416905227
 30
0.0
 11
5474.573753100692
 21
6498.388416905227
 31
0.0
  0
ARC
  5
7B4A
330
1F
100
AcDbEntity
  8
0
370
    18
100
AcDbCircle
 10
5476.125520052177
 20
6492.98526850456
 30
0.0
 40
0.9587608077068694
100
AcDbArc
 50
95.92334440423832
 51
157.387404400784
  0
LINE
  5
7B4B
330
1F
100
AcDbEntity
  8
0
370
    18
100
AcDbLine
 10
5474.509241391657
 20
6496.488117725046
 30
0.0
 11
5475.175657183607
 21
6494.684049603636
 31
0.0
  0
ARC
  5
7B4C
330
1F
100
AcDbEntity
  8
0
370
    18
100
AcDbCircle
 10
5482.833169529982
 20
6490.191413277194
 30
0.0
 40
8.224997010073714
100
AcDbArc
 50
157.387404400784
 51
171.020015179947
  0
ARC
  5
7B4D
330
1F
100
AcDbEntity
  8
0
370
    18
100
AcDbCircle
 10
5482.257203732254
 20
6490.44315573598
 30
0.0
 40
6.22149298766157
100
AcDbArc
 50
158.0969939507821
 51
170.4856136403549
  0
LINE
  5
7B4E
330
1F
100
AcDbEntity
  8
0
370
    18
100
AcDbLine
 10
5473.675461310499
 20
6498.388416905227
 30
0.0
 11
5473.277661909247
 21
6496.903809328538
 31
0.0
  0
LINE
  5
7B4F
330
1F
100
AcDbEntity
  8
0
370
    18
100
AcDbLine
 10
5473.142417747922
 20
6496.399071247044
 30
0.0
 11
5473.771031272253
 21
6494.697338434542
 31
0.0
  0
LINE
  5
7B50
330
1F
100
AcDbEntity
  8
0
370
    18
100
AcDbLine
 10
5473.173615631422
 20
6492.263016016349
 30
0.0
 11
5473.643105282522
 21
6494.01517524788
 31
0.0
  0
LINE
  5
7B51
330
1F
100
AcDbEntity
  8
0
370
    18
100
AcDbLine
 10
5472.333196179709
 20
6498.388416905227
 30
0.0
 11
5471.340613952779
 21
6494.684049603636
 31
0.0
  0
LINE
  5
7B52
330
1F
100
AcDbEntity
  8
0
370
    18
100
AcDbLine
 10
5472.464025616673
 20
6494.01517524788
 30
0.0
 11
5471.202839769407
 21
6494.01517524788
 31
0.0
  0
LINE
  5
7B53
330
1F
100
AcDbEntity
  8
0
370
    18
100
AcDbLine
 10
5471.340613952779
 20
6494.684049603636
 30
0.0
 11
5472.682879083569
 21
6494.684049603636
 31
0.0
  0
LINE
  5
7B54
330
1F
100
AcDbEntity
  8
0
370
    18
100
AcDbLine
 10
5472.464025616673
 20
6494.01517524788
 30
0.0
 11
5473.173615631422
 21
6492.263016016349
 31
0.0
  0
LINE
  5
7B55
330
1F
100
AcDbEntity
  8
0
370
    18
100
AcDbLine
 10
5473.142417747922
 20
6496.399071247044
 30
0.0
 11
5472.682879083569
 21
6494.684049603636
 31
0.0
  0
LINE
  5
7B56
330
1F
100
AcDbEntity
  8
0
370
    18
100
AcDbLine
 10
5473.675461310499
 20
6498.388416905227
 30
0.0
 11
5472.333196179709
 21
6498.388416905227
 31
0.0
  0
LINE
  5
7B57
330
1F
100
AcDbEntity
  8
0
370
    18
100
AcDbLine
 10
5474.573753100692
 20
6498.388416905227
 30
0.0
 11
5473.277661909247
 21
6496.903809328538
 31
0.0
  0
LINE
  5
7B58
330
1F
100
AcDbEntity
  8
0
370
    18
100
AcDbLine
 10
5474.95847642208
 20
6494.01517524788
 30
0.0
 11
5473.643105282522
 21
6494.01517524788
 31
0.0
  0
LINE
  5
7B59
330
1F
100
AcDbEntity
  8
0
370
    18
100
AcDbLine
 10
5473.735056800313
 20
6494.684049603636
 30
0.0
 11
5475.175657183607
 21
6494.684049603636
 31
0.0
  0
LINE
  5
7B5A
330
1F
100
AcDbEntity
  8
0
370
    18
100
AcDbLine
 10
5481.222191365876
 20
6494.684049603636
 30
0.0
 11
5481.510723497672
 21
6495.212434946413
 31
0.0
  0
LINE
  5
7B5B
330
1F
100
AcDbEntity
  8
0
370
    18
100
AcDbLine
 10
5478.889177956215
 20
6492.930384244822
 30
0.0
 11
5479.153131678478
 21
6493.923649974046
 31
0.0
  0
LINE
  5
7B5C
330
1F
100
AcDbEntity
  8
0
370
    18
100
AcDbLine
 10
5477.815571085216
 20
6498.388416905227
 30
0.0
 11
5476.554385237949
 21
6498.388416905227
 31
0.0
  0
LINE
  5
7B5D
330
1F
100
AcDbEntity
  8
0
370
    18
100
AcDbLine
 10
5477.815571085216
 20
6498.388416905227
 30
0.0
 11
5478.525161099963
 21
6496.636257673697
 31
0.0
  0
LINE
  5
7B5E
330
1F
100
AcDbEntity
  8
0
370
    18
100
AcDbLine
 10
5477.336259616937
 20
6496.445184839477
 30
0.0
 11
5476.864364852731
 21
6494.684049603636
 31
0.0
  0
LINE
  5
7B5F
330
1F
100
AcDbEntity
  8
0
370
    18
100
AcDbLine
 10
5478.043394923386
 20
6494.684049603636
 30
0.0
 11
5477.336259616937
 21
6496.445184839477
 31
0.0
  0
ARC
  5
7B60
330
1F
100
AcDbEntity
  8
0
370
    18
100
AcDbCircle
 10
5477.355099481135
 20
6484.206594542112
 30
0.0
 40
8.85764661435673
100
AcDbArc
 50
80.02650671627424
 51
93.02614479233071
  0
LINE
  5
7B61
330
1F
100
AcDbEntity
  8
0
370
    18
100
AcDbLine
 10
5478.525161099963
 20
6496.636257673697
 30
0.0
 11
5478.994650751064
 21
6498.388416905227
 31
0.0
  0
LINE
  5
7B62
330
1F
100
AcDbEntity
  8
0
370
    18
100
AcDbLine
 10
5478.043394923386
 20
6494.684049603636
 30
0.0
 11
5479.317439663692
 21
6494.684049603636
 31
0.0
  0
ARC
  5
7B63
330
1F
100
AcDbEntity
  8
0
370
    18
100
AcDbCircle
 10
5475.675167961951
 20
6491.908807515485
 30
0.0
 40
1.422878199650913
100
AcDbArc
 50
334.2263645027551
 51
11.71383119334301
  0
LINE
  5
7B64
330
1F
100
AcDbEntity
  8
0
370
    18
100
AcDbLine
 10
5477.068413057281
 20
6492.197685474803
 30
0.0
 11
5478.633135236279
 21
6492.197685474803
 31
0.0
  0
LINE
  5
7B65
330
1F
100
AcDbEntity
  8
0
370
    18
100
AcDbLine
 10
5480.310021890622
 20
6498.388416905227
 30
0.0
 11
5478.994650751064
 21
6498.388416905227
 31
0.0
  0
LINE
  5
7B66
330
1F
100
AcDbEntity
  8
0
370
    18
100
AcDbLine
 10
5480.921420674492
 20
6494.01517524788
 30
0.0
 11
5479.579155543703
 21
6494.01517524788
 31
0.0
  0
LINE
  5
7B67
330
1F
100
AcDbEntity
  8
0
370
    18
100
AcDbLine
 10
5479.624194850435
 20
6494.684049603636
 30
0.0
 11
5481.222191365876
 21
6494.684049603636
 31
0.0
  0
LINE
  5
7B68
330
1F
100
AcDbEntity
  8
0
370
    18
100
AcDbLine
 10
5479.317439663692
 20
6494.684049603636
 30
0.0
 11
5480.310021890622
 21
6498.388416905227
 31
0.0
  0
LINE
  5
7B69
330
1F
100
AcDbEntity
  8
0
370
    18
100
AcDbLine
 10
5479.624194850435
 20
6494.684049603636
 30
0.0
 11
5481.647015901576
 21
6498.388416905227
 31
0.0
  0
ARC
  5
7B6A
330
1F
100
AcDbEntity
  8
0
370
    18
100
AcDbCircle
 10
5505.746120066994
 20
6492.98526850456
 30
0.0
 40
0.9587608077068694
100
AcDbArc
 50
95.92334440423832
 51
157.387404400784
  0
ARC
  5
7B6B
330
1F
100
AcDbEntity
  8
0
370
    18
100
AcDbCircle
 10
5506.127204628256
 20
6497.427081810973
 30
0.0
 40
7.119253077153191
100
AcDbArc
 50
262.0635437036924
 51
268.3423749580191
  0
LWPOLYLINE
  5
7B6C
330
1F
100
AcDbEntity
  8
0
370
    18
100
AcDbPolyline
 90
        4
 70
     1
 43
0.0
 10
5484.501307611483
 20
6489.722324019201
 10
5483.905758275325
 20
6487.499703638246
 10
5506.956764193427
 20
6487.499703638246
 10
5507.552313529585
 20
6489.722324019201
  0
ARC
  5
7B6D
330
1F
100
AcDbEntity
  8
0
370
    18
100
AcDbCircle
 10
5505.276596124882
 20
6491.325595911956
 30
0.0
 40
0.9587608077068694
100
AcDbArc
 50
171.020015179947
 51
262.0635437036924
  0
LINE
  5
7B6E
330
1F
100
AcDbEntity
  8
0
370
    18
100
AcDbLine
 10
5496.605961778556
 20
6491.90420909033
 30
0.0
 11
5497.609490073831
 21
6490.320733768557
 31
0.0
  0
LINE
  5
7B6F
330
1F
100
AcDbEntity
  8
0
370
    18
100
AcDbLine
 10
5501.65789719071
 20
6492.071943182129
 30
0.0
 11
5501.186002426505
 21
6490.310807946288
 31
0.0
  0
LINE
  5
7B70
330
1F
100
AcDbEntity
  8
0
370
    18
100
AcDbLine
 10
5502.365032497159
 20
6490.310807946288
 30
0.0
 11
5501.65789719071
 21
6492.071943182129
 31
0.0
  0
LINE
  5
7B71
330
1F
100
AcDbEntity
  8
0
370
    18
100
AcDbLine
 10
5503.639077237465
 20
6490.310807946288
 30
0.0
 11
5504.631659464394
 21
6494.01517524788
 31
0.0
  0
LINE
  5
7B72
330
1F
100
AcDbEntity
  8
0
370
    18
100
AcDbLine
 10
5499.071881113835
 20
6494.01517524788
 30
0.0
 11
5498.079298886906
 21
6490.310807946288
 31
0.0
  0
LINE
  5
7B73
330
1F
100
AcDbEntity
  8
0
370
    18
100
AcDbLine
 10
5500.414146244625
 20
6494.01517524788
 30
0.0
 11
5499.421564017695
 21
6490.310807946288
 31
0.0
  0
LINE
  5
7B74
330
1F
100
AcDbEntity
  8
0
370
    18
100
AcDbLine
 10
5500.876022811723
 20
6494.01517524788
 30
0.0
 11
5499.883440584792
 21
6490.310807946288
 31
0.0
  0
LINE
  5
7B75
330
1F
100
AcDbEntity
  8
0
370
    18
100
AcDbLine
 10
5492.655787609399
 20
6490.310807946288
 30
0.0
 11
5492.928529909699
 21
6491.328696068386
 31
0.0
  0
LINE
  5
7B76
330
1F
100
AcDbEntity
  8
0
370
    18
100
AcDbLine
 10
5494.896957291652
 20
6491.90420909033
 30
0.0
 11
5494.472666357948
 21
6490.320733768557
 31
0.0
  0
LINE
  5
7B77
330
1F
100
AcDbEntity
  8
0
370
    18
100
AcDbLine
 10
5494.896957291652
 20
6491.90420909033
 30
0.0
 11
5495.900485586925
 21
6490.320733768557
 31
0.0
  0
LINE
  5
7B78
330
1F
100
AcDbEntity
  8
0
370
    18
100
AcDbLine
 10
5488.420052235843
 20
6490.310807946288
 30
0.0
 11
5488.692794536145
 21
6491.328696068386
 31
0.0
  0
LINE
  5
7B79
330
1F
100
AcDbEntity
  8
0
370
    18
100
AcDbLine
 10
5494.162686743165
 20
6494.025101070149
 30
0.0
 11
5493.167444900174
 21
6490.310807946288
 31
0.0
  0
LINE
  5
7B7A
330
1F
100
AcDbEntity
  8
0
370
    18
100
AcDbLine
 10
5485.617294521023
 20
6494.01517524788
 30
0.0
 11
5484.624712294093
 21
6490.310807946288
 31
0.0
  0
LINE
  5
7B7B
330
1F
100
AcDbEntity
  8
0
370
    18
100
AcDbLine
 10
5489.853029894578
 20
6494.01517524788
 30
0.0
 11
5488.860447667647
 21
6490.310807946288
 31
0.0
  0
LINE
  5
7B7C
330
1F
100
AcDbEntity
  8
0
370
    18
100
AcDbLine
 10
5484.146351667333
 20
6490.310807946288
 30
0.0
 11
5485.138933894264
 21
6494.01517524788
 31
0.0
  0
LINE
  5
7B7D
330
1F
100
AcDbEntity
  8
0
370
    18
100
AcDbLine
 10
5493.170104516235
 20
6490.320733768557
 30
0.0
 11
5494.472666357948
 21
6490.320733768557
 31
0.0
  0
LINE
  5
7B7E
330
1F
100
AcDbEntity
  8
0
370
    18
100
AcDbLine
 10
5484.624712294093
 20
6490.310807946288
 30
0.0
 11
5488.420052235843
 21
6490.310807946288
 31
0.0
  0
LINE
  5
7B7F
330
1F
100
AcDbEntity
  8
0
370
    18
100
AcDbLine
 10
5482.872306927028
 20
6490.310807946288
 30
0.0
 11
5484.146351667333
 21
6490.310807946288
 31
0.0
  0
LINE
  5
7B80
330
1F
100
AcDbEntity
  8
0
370
    18
100
AcDbLine
 10
5488.860447667647
 20
6490.310807946288
 30
0.0
 11
5492.655787609399
 21
6490.310807946288
 31
0.0
  0
LINE
  5
7B81
330
1F
100
AcDbEntity
  8
0
370
    18
100
AcDbLine
 10
5498.079298886906
 20
6490.310807946288
 30
0.0
 11
5499.421564017695
 21
6490.310807946288
 31
0.0
  0
LINE
  5
7B82
330
1F
100
AcDbEntity
  8
0
370
    18
100
AcDbLine
 10
5495.900485586925
 20
6490.320733768557
 30
0.0
 11
5497.609490073831
 21
6490.320733768557
 31
0.0
  0
LINE
  5
7B83
330
1F
100
AcDbEntity
  8
0
370
    18
100
AcDbLine
 10
5502.365032497159
 20
6490.310807946288
 30
0.0
 11
5503.639077237465
 21
6490.310807946288
 31
0.0
  0
LINE
  5
7B84
330
1F
100
AcDbEntity
  8
0
370
    18
100
AcDbLine
 10
5499.883440584792
 20
6490.310807946288
 30
0.0
 11
5501.186002426505
 21
6490.310807946288
 31
0.0
  0
LINE
  5
7B85
330
1F
100
AcDbEntity
  8
0
370
    18
100
AcDbLine
 10
5493.033002240454
 20
6494.684049603636
 30
0.0
 11
5494.335564082167
 21
6494.684049603636
 31
0.0
  0
LINE
  5
7B86
330
1F
100
AcDbEntity
  8
0
370
    18
100
AcDbLine
 10
5494.025584467384
 20
6498.388416905227
 30
0.0
 11
5493.033002240454
 21
6494.684049603636
 31
0.0
  0
ARC
  5
7B87
330
1F
100
AcDbEntity
  8
0
370
    18
100
AcDbCircle
 10
5487.341975879776
 20
6495.783637356776
 30
0.0
 40
1.035461672323419
100
AcDbArc
 50
278.5178280220924
 51
345.0000000000055
  0
LINE
  5
7B88
330
1F
100
AcDbEntity
  8
0
370
    18
100
AcDbLine
 10
5486.200016436107
 20
6491.328696068386
 30
0.0
 11
5488.703070503511
 21
6491.328696068386
 31
0.0
  0
LINE
  5
7B89
330
1F
100
AcDbEntity
  8
0
370
    18
100
AcDbLine
 10
5489.139547289425
 20
6492.996000042047
 30
0.0
 11
5486.636493222021
 21
6492.996000042047
 31
0.0
  0
LINE
  5
7B8A
330
1F
100
AcDbEntity
  8
0
370
    18
100
AcDbLine
 10
5489.111913261329
 20
6498.388416905227
 30
0.0
 11
5487.646896862173
 21
6498.388416905227
 31
0.0
  0
LINE
  5
7B8B
330
1F
100
AcDbEntity
  8
0
370
    18
100
AcDbLine
 10
5489.412634462774
 20
6494.01517524788
 30
0.0
 11
5485.617294521023
 21
6494.01517524788
 31
0.0
  0
LINE
  5
7B8C
330
1F
100
AcDbEntity
  8
0
370
    18
100
AcDbLine
 10
5486.324328059727
 20
6491.792633363705
 30
0.0
 11
5488.817106159765
 21
6491.792633363705
 31
0.0
  0
LINE
  5
7B8D
330
1F
100
AcDbEntity
  8
0
370
    18
100
AcDbLine
 10
5489.015500214676
 20
6492.533050056552
 30
0.0
 11
5486.522722114638
 21
6492.533050056552
 31
0.0
  0
LINE
  5
7B8E
330
1F
100
AcDbEntity
  8
0
370
    18
100
AcDbLine
 10
5485.276870030503
 20
6498.388416905227
 30
0.0
 11
5484.624217672366
 21
6495.952685144985
 31
0.0
  0
LINE
  5
7B8F
330
1F
100
AcDbEntity
  8
0
370
    18
100
AcDbLine
 10
5486.711065764874
 20
6498.388416905227
 30
0.0
 11
5485.276870030503
 21
6498.388416905227
 31
0.0
  0
LINE
  5
7B90
330
1F
100
AcDbEntity
  8
0
370
    18
100
AcDbLine
 10
5486.915573001933
 20
6495.659079102022
 30
0.0
 11
5487.646896862173
 21
6498.388416905227
 31
0.0
  0
ARC
  5
7B91
330
1F
100
AcDbEntity
  8
0
370
    18
100
AcDbCircle
 10
5486.58217994479
 20
6495.748411502446
 30
0.0
 40
0.3451538907744731
100
AcDbArc
 50
270.0
 51
345.0000000000055
  0
LINE
  5
7B92
330
1F
100
AcDbEntity
  8
0
370
    18
100
AcDbLine
 10
5486.58217994479
 20
6495.403257611672
 30
0.0
 11
5486.361008050879
 21
6495.403257611672
 31
0.0
  0
ARC
  5
7B93
330
1F
100
AcDbEntity
  8
0
370
    18
100
AcDbCircle
 10
5486.361008050879
 20
6495.748411502446
 30
0.0
 40
0.3451538907744731
100
AcDbArc
 50
165.0000000000055
 51
270.0
  0
LINE
  5
7B94
330
1F
100
AcDbEntity
  8
0
370
    18
100
AcDbLine
 10
5486.711065764874
 20
6498.388416905227
 30
0.0
 11
5486.027614993735
 21
6495.837743902869
 31
0.0
  0
ARC
  5
7B95
330
1F
100
AcDbEntity
  8
0
370
    18
100
AcDbCircle
 10
5486.44086207308
 20
6501.80032346832
 30
0.0
 40
7.119253077153191
100
AcDbArc
 50
261.6882763531171
 51
278.5178280220924
  0
LINE
  5
7B96
330
1F
100
AcDbEntity
  8
0
370
    18
100
AcDbLine
 10
5486.324328059727
 20
6491.792633363705
 30
0.0
 11
5486.200016436107
 21
6491.328696068386
 31
0.0
  0
LINE
  5
7B97
330
1F
100
AcDbEntity
  8
0
370
    18
100
AcDbLine
 10
5486.324328059727
 20
6491.792633363705
 30
0.0
 11
5486.210292403473
 21
6491.367046500695
 31
0.0
  0
LINE
  5
7B98
330
1F
100
AcDbEntity
  8
0
370
    18
100
AcDbLine
 10
5486.646769189387
 20
6492.996000042047
 30
0.0
 11
5486.522722114638
 21
6492.533050056552
 31
0.0
  0
LINE
  5
7B99
330
1F
100
AcDbEntity
  8
0
370
    18
100
AcDbLine
 10
5484.344781783889
 20
6494.682113735428
 30
0.0
 11
5484.157454741178
 21
6498.388416905227
 31
0.0
  0
LINE
  5
7B9A
330
1F
100
AcDbEntity
  8
0
370
    18
100
AcDbLine
 10
5482.973472518263
 20
6496.016497335924
 30
0.0
 11
5482.886749279773
 21
6497.732334030165
 31
0.0
  0
LINE
  5
7B9B
330
1F
100
AcDbEntity
  8
0
370
    18
100
AcDbLine
 10
5483.040818194485
 20
6494.684049603636
 30
0.0
 11
5483.014112105117
 21
6495.212434946413
 31
0.0
  0
LINE
  5
7B9C
330
1F
100
AcDbEntity
  8
0
370
    18
100
AcDbLine
 10
5483.040818194485
 20
6494.684049603636
 30
0.0
 11
5484.344683939635
 21
6494.684049603636
 31
0.0
  0
LINE
  5
7B9D
330
1F
100
AcDbEntity
  8
0
370
    18
100
AcDbLine
 10
5483.354073103606
 20
6492.263016016349
 30
0.0
 11
5483.823562754706
 21
6494.01517524788
 31
0.0
  0
ARC
  5
7B9E
330
1F
100
AcDbEntity
  8
0
370
    18
100
AcDbCircle
 10
5485.550309497764
 20
6495.704539588252
 30
0.0
 40
0.9587608077068694
100
AcDbArc
 50
165.0000000000055
 51
261.6882763531171
  0
LINE
  5
7B9F
330
1F
100
AcDbEntity
  8
0
370
    18
100
AcDbLine
 10
5485.138933894264
 20
6494.01517524788
 30
0.0
 11
5483.823562754706
 21
6494.01517524788
 31
0.0
  0
LINE
  5
7BA0
330
1F
100
AcDbEntity
  8
0
370
    18
100
AcDbLine
 10
5482.644483088857
 20
6494.01517524788
 30
0.0
 11
5483.354073103606
 21
6492.263016016349
 31
0.0
  0
LINE
  5
7BA1
330
1F
100
AcDbEntity
  8
0
370
    18
100
AcDbLine
 10
5493.375282662979
 20
6492.996000042047
 30
0.0
 11
5493.648369836328
 21
6494.01517524788
 31
0.0
  0
LINE
  5
7BA2
330
1F
100
AcDbEntity
  8
0
370
    18
100
AcDbLine
 10
5493.216884397547
 20
6497.369241699395
 30
0.0
 11
5493.489971570896
 21
6498.388416905227
 31
0.0
  0
LINE
  5
7BA3
330
1F
100
AcDbEntity
  8
0
370
    18
100
AcDbLine
 10
5492.894443267887
 20
6496.165875021055
 30
0.0
 11
5493.092837322798
 21
6496.906291713898
 31
0.0
  0
LINE
  5
7BA4
330
1F
100
AcDbEntity
  8
0
370
    18
100
AcDbLine
 10
5492.497389343967
 20
6494.684049603636
 30
0.0
 11
5492.770131644268
 21
6495.701937725733
 31
0.0
  0
LINE
  5
7BA5
330
1F
100
AcDbEntity
  8
0
370
    18
100
AcDbLine
 10
5493.052841533319
 20
6491.792633363705
 30
0.0
 11
5493.25123558823
 21
6492.533050056552
 31
0.0
  0
LINE
  5
7BA6
330
1F
100
AcDbEntity
  8
0
370
    18
100
AcDbLine
 10
5490.724106297509
 20
6497.369241699395
 30
0.0
 11
5490.60005922276
 21
6496.906291713898
 31
0.0
  0
LINE
  5
7BA7
330
1F
100
AcDbEntity
  8
0
370
    18
100
AcDbLine
 10
5489.139547289425
 20
6492.996000042047
 30
0.0
 11
5489.412634462774
 21
6494.01517524788
 31
0.0
  0
LINE
  5
7BA8
330
1F
100
AcDbEntity
  8
0
370
    18
100
AcDbLine
 10
5490.401665167849
 20
6496.165875021055
 30
0.0
 11
5490.27735354423
 21
6495.701937725733
 31
0.0
  0
LINE
  5
7BA9
330
1F
100
AcDbEntity
  8
0
370
    18
100
AcDbLine
 10
5490.401665167849
 20
6496.165875021055
 30
0.0
 11
5490.287629511596
 21
6495.740288158042
 31
0.0
  0
LINE
  5
7BAA
330
1F
100
AcDbEntity
  8
0
370
    18
100
AcDbLine
 10
5490.560063433282
 20
6491.792633363705
 30
0.0
 11
5490.435751809662
 21
6491.328696068386
 31
0.0
  0
LINE
  5
7BAB
330
1F
100
AcDbEntity
  8
0
370
    18
100
AcDbLine
 10
5490.560063433282
 20
6491.792633363705
 30
0.0
 11
5490.446027777028
 21
6491.367046500695
 31
0.0
  0
LINE
  5
7BAC
330
1F
100
AcDbEntity
  8
0
370
    18
100
AcDbLine
 10
5488.817106159765
 20
6491.792633363705
 30
0.0
 11
5489.015500214676
 21
6492.533050056552
 31
0.0
  0
LINE
  5
7BAD
330
1F
100
AcDbEntity
  8
0
370
    18
100
AcDbLine
 10
5490.882504562941
 20
6492.996000042047
 30
0.0
 11
5490.758457488191
 21
6492.533050056552
 31
0.0
  0
LINE
  5
7BAE
330
1F
100
AcDbEntity
  8
0
370
    18
100
AcDbLine
 10
5488.342155051206
 20
6495.515640155504
 30
0.0
 11
5489.111913261329
 21
6498.388416905227
 31
0.0
  0
LINE
  5
7BAF
330
1F
100
AcDbEntity
  8
0
370
    18
100
AcDbLine
 10
5489.694631629146
 20
6498.388416905227
 30
0.0
 11
5488.702049402217
 21
6494.684049603636
 31
0.0
  0
LINE
  5
7BB0
330
1F
100
AcDbEntity
  8
0
370
    18
100
AcDbLine
 10
5493.375282662979
 20
6492.996000042047
 30
0.0
 11
5490.872228595574
 21
6492.996000042047
 31
0.0
  0
LINE
  5
7BB1
330
1F
100
AcDbEntity
  8
0
370
    18
100
AcDbLine
 10
5493.092837322798
 20
6496.906291713898
 30
0.0
 11
5490.60005922276
 21
6496.906291713898
 31
0.0
  0
LINE
  5
7BB2
330
1F
100
AcDbEntity
  8
0
370
    18
100
AcDbLine
 10
5493.216884397547
 20
6497.369241699395
 30
0.0
 11
5490.713830330143
 21
6497.369241699395
 31
0.0
  0
LINE
  5
7BB3
330
1F
100
AcDbEntity
  8
0
370
    18
100
AcDbLine
 10
5490.401665167849
 20
6496.165875021055
 30
0.0
 11
5492.894443267887
 21
6496.165875021055
 31
0.0
  0
LINE
  5
7BB4
330
1F
100
AcDbEntity
  8
0
370
    18
100
AcDbLine
 10
5493.648369836328
 20
6494.01517524788
 30
0.0
 11
5489.853029894578
 21
6494.01517524788
 31
0.0
  0
LINE
  5
7BB5
330
1F
100
AcDbEntity
  8
0
370
    18
100
AcDbLine
 10
5490.27735354423
 20
6495.701937725733
 30
0.0
 11
5492.780407611634
 21
6495.701937725733
 31
0.0
  0
LINE
  5
7BB6
330
1F
100
AcDbEntity
  8
0
370
    18
100
AcDbLine
 10
5493.489971570896
 20
6498.388416905227
 30
0.0
 11
5489.694631629146
 21
6498.388416905227
 31
0.0
  0
LINE
  5
7BB7
330
1F
100
AcDbEntity
  8
0
370
    18
100
AcDbLine
 10
5493.25123558823
 20
6492.533050056552
 30
0.0
 11
5490.758457488191
 21
6492.533050056552
 31
0.0
  0
LINE
  5
7BB8
330
1F
100
AcDbEntity
  8
0
370
    18
100
AcDbLine
 10
5490.435751809662
 20
6491.328696068386
 30
0.0
 11
5492.938805877066
 21
6491.328696068386
 31
0.0
  0
LINE
  5
7BB9
330
1F
100
AcDbEntity
  8
0
370
    18
100
AcDbLine
 10
5490.560063433282
 20
6491.792633363705
 30
0.0
 11
5493.052841533319
 21
6491.792633363705
 31
0.0
  0
LINE
  5
7BBA
330
1F
100
AcDbEntity
  8
0
370
    18
100
AcDbLine
 10
5488.702049402217
 20
6494.684049603636
 30
0.0
 11
5492.497389343967
 21
6494.684049603636
 31
0.0
  0
LINE
  5
7BBB
330
1F
100
AcDbEntity
  8
0
370
    18
100
AcDbLine
 10
5500.414146244625
 20
6494.01517524788
 30
0.0
 11
5499.071881113835
 21
6494.01517524788
 31
0.0
  0
LINE
  5
7BBC
330
1F
100
AcDbEntity
  8
0
370
    18
100
AcDbLine
 10
5498.064238460464
 20
6496.892866346266
 30
0.0
 11
5498.180387189569
 21
6497.326339304521
 31
0.0
  0
LINE
  5
7BBD
330
1F
100
AcDbEntity
  8
0
370
    18
100
AcDbLine
 10
5498.201340736246
 20
6492.529550511187
 30
0.0
 11
5498.317489465351
 21
6492.963023469442
 31
0.0
  0
ARC
  5
7BBE
330
1F
100
AcDbEntity
  8
0
370
    18
100
AcDbCircle
 10
5496.346429349936
 20
6492.762188549853
 30
0.0
 40
0.386334411403646
100
AcDbArc
 50
350.9662004601295
 51
90.19530426564614
  0
LINE
  5
7BBF
330
1F
100
AcDbEntity
  8
0
370
    18
100
AcDbLine
 10
5497.249277654113
 20
6496.267524925409
 30
0.0
 11
5496.468859502776
 21
6496.267524925409
 31
0.0
  0
ARC
  5
7BC0
330
1F
100
AcDbEntity
  8
0
370
    18
100
AcDbCircle
 10
5496.209327074153
 20
6497.125504384931
 30
0.0
 40
0.386334411403646
100
AcDbArc
 50
350.9662004601295
 51
90.19530426564614
  0
ARC
  5
7BC1
330
1F
100
AcDbEntity
  8
0
370
    18
100
AcDbCircle
 10
5496.049343458383
 20
6497.150940053377
 30
0.0
 40
0.5483274067590241
100
AcDbArc
 50
296.5093598874458
 51
350.9662004601295
  0
LINE
  5
7BC2
330
1F
100
AcDbEntity
  8
0
370
    18
100
AcDbLine
 10
5496.468859502776
 20
6496.267524925409
 30
0.0
 11
5497.472387798048
 21
6494.684049603636
 31
0.0
  0
LINE
  5
7BC3
330
1F
100
AcDbEntity
  8
0
370
    18
100
AcDbLine
 10
5497.386379929896
 20
6491.90420909033
 30
0.0
 11
5496.605961778556
 21
6491.90420909033
 31
0.0
  0
ARC
  5
7BC4
330
1F
100
AcDbEntity
  8
0
370
    18
100
AcDbCircle
 10
5496.152002107302
 20
6493.012639853029
 30
0.0
 40
0.7682193793950698
100
AcDbArc
 50
270.185218860838
 51
291.3103783431873
  0
ARC
  5
7BC5
330
1F
100
AcDbEntity
  8
0
370
    18
100
AcDbCircle
 10
5496.186445734164
 20
6492.787624218299
 30
0.0
 40
0.5483274067590241
100
AcDbArc
 50
296.5093598874458
 51
350.9662004601295
  0
LINE
  5
7BC6
330
1F
100
AcDbEntity
  8
0
370
    18
100
AcDbLine
 10
5494.851015456837
 20
6496.607740322737
 30
0.0
 11
5495.093267311315
 21
6497.511836551879
 31
0.0
  0
LINE
  5
7BC7
330
1F
100
AcDbEntity
  8
0
370
    18
100
AcDbLine
 10
5494.75985501587
 20
6496.267524925409
 30
0.0
 11
5494.335564082167
 21
6494.684049603636
 31
0.0
  0
LINE
  5
7BC8
330
1F
100
AcDbEntity
  8
0
370
    18
100
AcDbLine
 10
5494.75985501587
 20
6496.267524925409
 30
0.0
 11
5495.763383311143
 21
6494.684049603636
 31
0.0
  0
LINE
  5
7BC9
330
1F
100
AcDbEntity
  8
0
370
    18
100
AcDbLine
 10
5496.017383231007
 20
6496.607740322737
 30
0.0
 11
5494.851015456837
 21
6496.607740322737
 31
0.0
  0
LINE
  5
7BCA
330
1F
100
AcDbEntity
  8
0
370
    18
100
AcDbLine
 10
5494.988117732619
 20
6492.244424487658
 30
0.0
 11
5495.230369587097
 21
6493.1485207168
 31
0.0
  0
LINE
  5
7BCB
330
1F
100
AcDbEntity
  8
0
370
    18
100
AcDbLine
 10
5496.154485506788
 20
6492.244424487658
 30
0.0
 11
5494.988117732619
 21
6492.244424487658
 31
0.0
  0
ARC
  5
7BCC
330
1F
100
AcDbEntity
  8
0
370
    18
100
AcDbCircle
 10
5496.014899831521
 20
6497.375955688108
 30
0.0
 40
0.7682193793950698
100
AcDbArc
 50
270.185218860838
 51
291.3103783431873
  0
LINE
  5
7BCD
330
1F
100
AcDbEntity
  8
0
370
    18
100
AcDbLine
 10
5495.763383311143
 20
6494.684049603636
 30
0.0
 11
5497.472387798048
 21
6494.684049603636
 31
0.0
  0
LINE
  5
7BCE
330
1F
100
AcDbEntity
  8
0
370
    18
100
AcDbLine
 10
5497.502528659001
 20
6494.025101070149
 30
0.0
 11
5494.162686743165
 21
6494.025101070149
 31
0.0
  0
LINE
  5
7BCF
330
1F
100
AcDbEntity
  8
0
370
    18
100
AcDbLine
 10
5497.365426383219
 20
6498.388416905227
 30
0.0
 11
5494.025584467384
 21
6498.388416905227
 31
0.0
  0
LINE
  5
7BD0
330
1F
100
AcDbEntity
  8
0
370
    18
100
AcDbLine
 10
5496.345112453419
 20
6493.1485207168
 30
0.0
 11
5495.230369587097
 21
6493.1485207168
 31
0.0
  0
LINE
  5
7BD1
330
1F
100
AcDbEntity
  8
0
370
    18
100
AcDbLine
 10
5496.208010177639
 20
6497.511836551879
 30
0.0
 11
5495.093267311315
 21
6497.511836551879
 31
0.0
  0
ARC
  5
7BD2
330
1F
100
AcDbEntity
  8
0
370
    18
100
AcDbCircle
 10
5497.502528659001
 20
6493.181391559367
 30
0.0
 40
0.8437095107820451
100
AcDbArc
 50
344.999952987916
 51
90.0
  0
ARC
  5
7BD3
330
1F
100
AcDbEntity
  8
0
370
    18
100
AcDbCircle
 10
5497.249277654113
 20
6497.111234436191
 30
0.0
 40
0.8437095107820451
100
AcDbArc
 50
270.0
 51
345.0438139040654
  0
ARC
  5
7BD4
330
1F
100
AcDbEntity
  8
0
370
    18
100
AcDbCircle
 10
5497.365426383219
 20
6497.544707394445
 30
0.0
 40
0.8437095107820451
100
AcDbArc
 50
344.999952987916
 51
90.0
  0
ARC
  5
7BD5
330
1F
100
AcDbEntity
  8
0
370
    18
100
AcDbCircle
 10
5497.386379929896
 20
6492.747918601112
 30
0.0
 40
0.8437095107820451
100
AcDbArc
 50
270.0
 51
345.0438139040654
  0
LINE
  5
7BD6
330
1F
100
AcDbEntity
  8
0
370
    18
100
AcDbLine
 10
5504.631659464394
 20
6494.01517524788
 30
0.0
 11
5503.316288324837
 21
6494.01517524788
 31
0.0
  0
LINE
  5
7BD7
330
1F
100
AcDbEntity
  8
0
370
    18
100
AcDbLine
 10
5502.137208658989
 20
6494.01517524788
 30
0.0
 11
5500.876022811723
 21
6494.01517524788
 31
0.0
  0
LINE
  5
7BD8
330
1F
100
AcDbEntity
  8
0
370
    18
100
AcDbLine
 10
5502.846798673736
 20
6492.263016016349
 30
0.0
 11
5503.316288324837
 21
6494.01517524788
 31
0.0
  0
LINE
  5
7BD9
330
1F
100
AcDbEntity
  8
0
370
    18
100
AcDbLine
 10
5502.137208658989
 20
6494.01517524788
 30
0.0
 11
5502.846798673736
 21
6492.263016016349
 31
0.0
  0
ARC
  5
7BDA
330
1F
100
AcDbEntity
  8
0
370
    18
100
AcDbCircle
 10
5512.453769544801
 20
6490.191413277194
 30
0.0
 40
8.224997010073714
100
AcDbArc
 50
157.387404400784
 51
171.020015179947
  0
LINE
  5
7BDB
330
1F
100
AcDbEntity
  8
0
370
    18
100
AcDbLine
 10
5507.748147941114
 20
6490.310807946288
 30
0.0
 11
5508.253735251096
 21
6492.197685474803
 31
0.0
  0
ARC
  5
7BDC
330
1F
100
AcDbEntity
  8
0
370
    18
100
AcDbCircle
 10
5506.162673263345
 20
6491.490221142022
 30
0.0
 40
0.4602051876992975
100
AcDbArc
 50
270.0
 51
334.2263645027551
  0
ARC
  5
7BDD
330
1F
100
AcDbEntity
  8
0
370
    18
100
AcDbCircle
 10
5506.120983041509
 20
6491.413520277406
 30
0.0
 40
0.3835043230827479
100
AcDbArc
 50
171.2985646492441
 51
270.0
  0
ARC
  5
7BDE
330
1F
100
AcDbEntity
  8
0
370
    18
100
AcDbCircle
 10
5506.922853938252
 20
6491.461320915536
 30
0.0
 40
1.150512969248243
100
AcDbArc
 50
270.0
 51
270.0
  0
LINE
  5
7BDF
330
1F
100
AcDbEntity
  8
0
370
    18
100
AcDbLine
 10
5506.120983041509
 20
6491.030015954322
 30
0.0
 11
5506.162673263345
 21
6491.030015954322
 31
0.0
  0
LINE
  5
7BE0
330
1F
100
AcDbEntity
  8
0
370
    18
100
AcDbLine
 10
5507.748147941114
 20
6490.310807946288
 30
0.0
 11
5505.921266143825
 21
6490.310807946288
 31
0.0
  0
LINE
  5
7BE1
330
1F
100
AcDbEntity
  8
0
370
    18
100
AcDbLine
 10
5508.509777971032
 20
6492.930384244822
 30
0.0
 11
5508.773731693296
 21
6493.923649974046
 31
0.0
  0
ARC
  5
7BE2
330
1F
100
AcDbEntity
  8
0
370
    18
100
AcDbCircle
 10
5505.29576797677
 20
6491.908807515485
 30
0.0
 40
1.422878199650913
100
AcDbArc
 50
334.2263645027551
 51
11.71383119334301
  0
LINE
  5
7BE3
330
1F
100
AcDbEntity
  8
0
370
    18
100
AcDbLine
 10
5506.689013072099
 20
6492.197685474803
 30
0.0
 11
5508.253735251096
 21
6492.197685474803
 31
0.0
  0
ARC
  5
7BE4
330
1F
100
AcDbEntity
  8
0
370
    18
100
AcDbCircle
 10
5506.975699495953
 20
6484.206594542112
 30
0.0
 40
8.85764661435673
100
AcDbArc
 50
80.02650671627424
 51
93.02614479233071
  0
ARC
  5
7BE5
330
1F
100
AcDbEntity
  8
0
370
    18
100
AcDbCircle
 10
5511.877803747072
 20
6490.44315573598
 30
0.0
 40
6.22149298766157
100
AcDbArc
 50
158.0969939507821
 51
170.4856136403549
  0
ARC
  5
7BE6
330
1F
100
AcDbEntity
  8
0
370
    18
100
AcDbCircle
 10
5506.53238480697
 20
6492.592326150068
 30
0.0
 40
0.4602051876992975
100
AcDbArc
 50
93.02614479233071
 51
158.0969939507821
  0
ARC
  5
7BE7
330
1F
100
AcDbEntity
  8
0
370
    18
100
AcDbCircle
 10
5507.140252010398
 20
6479.548079163079
 30
0.0
 40
14.46807838019826
100
AcDbArc
 50
83.51735091136767
 51
95.92334440423832
  0
LINE
  5
7BF1
330
1F
100
AcDbEntity
  8
Achsen
 48
10.0
100
AcDbLine
 10
5487.528255128849
 20
6484.99953673097
 30
0.0
 11
5487.528255128849
 21
6316.015431779081
 31
0.0
  0
VIEWPORT
  5
8F
330
1B
100
AcDbEntity
 67
     1
  8
0
100
AcDbViewport
 10
203.313844901882
 20
126.604057808759
 30
0.0
 40
550.4405972747581
 41
312.3808452888395
 68
     1
 69
     1
 12
203.313844901882
 22
126.604057808759
 13
0.0
 23
0.0
 14
10.0
 24
10.0
 15
10.0
 25
10.0
 16
0.0
 26
0.0
 36
1.0
 17
0.0
 27
0.0
 37
0.0
 42
50.0
 43
0.0
 44
0.0
 45
312.3808452888395
 50
0.0
 51
0.0
 72
   100
 90
    32800
  1

281
     0
 71
     1
 74
     0
110
0.0
120
0.0
130
0.0
111
1.0
121
0.0
131
0.0
112
0.0
122
1.0
132
0.0
 79
     0
146
0.0
  0
VIEWPORT
  5
21B5
330
1B
100
AcDbEntity
 67
     1
  8
Defpoints
100
AcDbViewport
 10
210.6379997340352
 20
134.3466143363688
 30
0.0
 40
392.0472531067184
 41
267.7912095008337
 68
     2
 69
     2
 12
5636.376024718183
 22
6265.080353767423
 13
0.0
 23
0.0
 14
10.0
 24
10.0
 15
10.0
 25
10.0
 16
0.0
 26
0.0
 36
1.0
 17
0.0
 27
0.0
 37
0.0
 42
50.0
 43
0.0
 44
0.0
 45
556.8566575814712
 50
0.0
 51
0.0
 72
   100
 90
    32864
  1

281
     0
 71
     1
 74
     0
110
0.0
120
0.0
130
0.0
111
1.0
121
0.0
131
0.0
112
0.0
122
1.0
132
0.0
 79
     0
146
0.0
  0
LINE
  5
7934
330
1B
100
AcDbEntity
 67
     1
  8
RAHMEN025
100
AcDbLine
 10
413.3088785391791
 20
275.1166923086295
 30
0.0
 11
-6.691121460820909
 21
275.1166923086295
 31
0.0
  0
LINE
  5
7935
330
1B
100
AcDbEntity
 67
     1
  8
RAHMEN07
100
AcDbLine
 10
408.3088785391791
 20
270.1166923086296
 30
0.0
 11
11.10887853917938
 21
270.1166923086296
 31
0.0
  0
LINE
  5
7936
330
1B
100
AcDbEntity
 67
     1
  8
RAHMEN07
100
AcDbLine
 10
11.10887853917938
 20
-16.88330769137039
 30
0.0
 11
11.10887853917938
 21
270.1166923086296
 31
0.0
  0
LINE
  5
7937
330
1B
100
AcDbEntity
 67
     1
  8
RAHMEN025
100
AcDbLine
 10
-6.691121460820909
 20
275.1166923086295
 30
0.0
 11
-6.691121460820909
 21
-21.88330769137039
 31
0.0
  0
LINE
  5
7938
330
1B
100
AcDbEntity
 67
     1
  8
RAHMEN07
100
AcDbLine
 10
11.10887853917938
 20
-16.88330769137039
 30
0.0
 11
408.3088785391791
 21
-16.88330769137039
 31
0.0
  0
LINE
  5
7939
330
1B
100
AcDbEntity
 67
     1
  8
RAHMEN025
100
AcDbLine
 10
-6.691121460820909
 20
-21.88330769137039
 30
0.0
 11
413.3088785391791
 21
-21.88330769137039
 31
0.0
  0
LINE
  5
793A
330
1B
100
AcDbEntity
 67
     1
  8
RAHMEN07
100
AcDbLine
 10
221.1088785391793
 20
-16.88330769137039
 30
0.0
 11
408.3088785391791
 21
-16.88330769137039
 31
0.0
  0
LINE
  5
793B
330
1B
100
AcDbEntity
 67
     1
  8
RAHMEN07
100
AcDbLine
 10
221.1088785391793
 20
21.36669230862958
 30
0.0
 11
408.3088785391793
 21
21.36669230862958
 31
0.0
  0
LINE
  5
793C
330
1B
100
AcDbEntity
 67
     1
  8
RAHMEN07
100
AcDbLine
 10
221.1088785391793
 20
0.1166923086296094
 30
0.0
 11
408.3088785391791
 21
0.1166923086296094
 31
0.0
  0
LINE
  5
793D
330
1B
100
AcDbEntity
 67
     1
  8
RAHMEN07
100
AcDbLine
 10
221.1088785391793
 20
38.36669230862961
 30
0.0
 11
408.3088785391793
 21
38.36669230862961
 31
0.0
  0
LINE
  5
793E
330
1B
100
AcDbEntity
 67
     1
  8
RAHMEN025
100
AcDbLine
 10
221.1088785391793
 20
-12.63330769137039
 30
0.0
 11
408.3088785391791
 21
-12.63330769137039
 31
0.0
  0
LINE
  5
793F
330
1B
100
AcDbEntity
 67
     1
  8
RAHMEN025
100
AcDbLine
 10
319.9088785391793
 20
31.99169230862961
 30
0.0
 11
408.3088785391793
 21
31.99169230862961
 31
0.0
  0
TEXT
  5
7940
330
1B
100
AcDbEntity
 67
     1
  8
RAHMEN025
100
AcDbText
 10
320.7249600974254
 20
16.79251024290184
 30
0.0
 40
2.5
  1
Benennung:
  7
ISO Proportional
100
AcDbText
  0
TEXT
  5
7941
330
1B
100
AcDbEntity
 67
     1
  8
RAHMEN025
100
AcDbText
 10
321.585578583172
 20
-16.00830769137039
 30
0.0
 40
2.5
  1
Ersatz für:
  7
ISO Proportional
100
AcDbText
  0
TEXT
  5
7942
330
1B
100
AcDbEntity
 67
     1
  8
RAHMEN025
100
AcDbText
 10
320.6743830511604
 20
25.80216264875778
 30
0.0
 40
2.5
  1
Werkstoff:
  7
ISO Proportional
100
AcDbText
  0
TEXT
  5
7943
330
1B
100
AcDbEntity
 67
     1
  8
RAHMEN025
100
AcDbText
 10
222.7125444942862
 20
33.92919230862961
 30
0.0
 40
2.5
  1
Verwendungsbereich
  7
ISO Proportional
100
AcDbText
  0
LINE
  5
7944
330
1B
100
AcDbEntity
 67
     1
  8
RAHMEN07
100
AcDbLine
 10
221.1088785391793
 20
38.36669230862961
 30
0.0
 11
221.1088785391793
 21
-16.88330769137039
 31
0.0
  0
LINE
  5
7945
330
1B
100
AcDbEntity
 67
     1
  8
RAHMEN025
100
AcDbLine
 10
275.7088785391793
 20
38.36669230862961
 30
0.0
 11
275.7088785391793
 21
-16.88330769137039
 31
0.0
  0
LINE
  5
7946
330
1B
100
AcDbEntity
 67
     1
  8
RAHMEN025
100
AcDbLine
 10
319.9088785391793
 20
38.36669230862961
 30
0.0
 11
319.9088785391793
 21
-16.88330769137039
 31
0.0
  0
LINE
  5
7947
330
1B
100
AcDbEntity
 67
     1
  8
RAHMEN025
100
AcDbLine
 10
301.7088785391794
 20
38.36669230862961
 30
0.0
 11
301.7088785391793
 21
0.1166923086296094
 31
0.0
  0
TEXT
  5
7948
330
1B
100
AcDbEntity
 67
     1
  8
RAHMEN025
100
AcDbText
 10
277.3125444942862
 20
33.92919230862961
 30
0.0
 40
2.5
  1
Zul. Abw.
  7
ISO Proportional
100
AcDbText
  0
TEXT
  5
7949
330
1B
100
AcDbEntity
 67
     1
  8
RAHMEN025
100
AcDbText
 10
321.0351384416708
 20
33.92919230862961
 30
0.0
 40
2.5
  1
Maßstab:
  7
ISO Proportional
100
AcDbText
  0
TEXT
  5
794A
330
1B
100
AcDbEntity
 67
     1
  8
RAHMEN025
100
AcDbText
 10
303.1549766923355
 20
33.92919230862961
 30
0.0
 40
2.5
  1
Oberfl.
  7
ISO Proportional
100
AcDbText
  0
LINE
  5
794B
330
1B
100
AcDbEntity
 67
     1
  8
RAHMEN025
100
AcDbLine
 10
221.1088785391793
 20
-4.13330769137039
 30
0.0
 11
275.7088785391793
 21
-4.13330769137039
 31
0.0
  0
LINE
  5
794C
330
1B
100
AcDbEntity
 67
     1
  8
RAHMEN025
100
AcDbLine
 10
221.1088785391793
 20
-8.38330769137039
 30
0.0
 11
275.7088785391793
 21
-8.38330769137039
 31
0.0
  0
LINE
  5
794D
330
1B
100
AcDbEntity
 67
     1
  8
RAHMEN025
100
AcDbLine
 10
221.1088785391793
 20
4.366692308629609
 30
0.0
 11
319.9088785391793
 21
4.366692308629609
 31
0.0
  0
LINE
  5
794E
330
1B
100
AcDbEntity
 67
     1
  8
RAHMEN025
100
AcDbLine
 10
221.1088785391793
 20
8.61669230862961
 30
0.0
 11
319.9088785391793
 21
8.61669230862961
 31
0.0
  0
LINE
  5
794F
330
1B
100
AcDbEntity
 67
     1
  8
RAHMEN025
100
AcDbLine
 10
221.1088785391793
 20
12.86669230862961
 30
0.0
 11
319.9088785391793
 21
12.86669230862961
 31
0.0
  0
LINE
  5
7950
330
1B
100
AcDbEntity
 67
     1
  8
RAHMEN025
100
AcDbLine
 10
221.1088785391793
 20
17.11669230862961
 30
0.0
 11
319.9088785391793
 21
17.11669230862961
 31
0.0
  0
TEXT
  5
7951
330
1B
100
AcDbEntity
 67
     1
  8
RAHMEN025
100
AcDbText
 10
267.9839103876615
 20
-16.00830769137039
 30
0.0
 40
2.5
  1
Name
  7
ISO Proportional
100
AcDbText
  0
LINE
  5
7952
330
1B
100
AcDbEntity
 67
     1
  8
RAHMEN025
100
AcDbLine
 10
228.9088785391793
 20
21.36669230862961
 30
0.0
 11
228.9088785391793
 21
-16.88330769137039
 31
0.0
  0
LINE
  5
7953
330
1B
100
AcDbEntity
 67
     1
  8
RAHMEN025
100
AcDbLine
 10
254.9088785391794
 20
21.36669230862961
 30
0.0
 11
254.9088785391794
 21
-16.88330769137039
 31
0.0
  0
LINE
  5
7954
330
1B
100
AcDbEntity
 67
     1
  8
RAHMEN025
100
AcDbLine
 10
267.9088785391793
 20
21.36669230862961
 30
0.0
 11
267.9088785391793
 21
-16.88330769137039
 31
0.0
  0
TEXT
  5
7955
330
1B
100
AcDbEntity
 67
     1
  8
RAHMEN025
100
AcDbText
 10
234.4943175795951
 20
-16.00830769137039
 30
0.0
 40
2.5
  1
Änderung
  7
ISO Proportional
100
AcDbText
  0
TEXT
  5
7956
330
1B
100
AcDbEntity
 67
     1
  8
RAHMEN025
100
AcDbText
 10
221.4236085166053
 20
-16.00830769137039
 30
0.0
 40
2.5
  1
Zust.
  7
ISO Proportional
100
AcDbText
  0
TEXT
  5
7957
330
1B
100
AcDbEntity
 67
     1
  8
RAHMEN025
100
AcDbText
 10
256.7205071199036
 20
-16.00830769137039
 30
0.0
 40
2.5
  1
Datum
  7
ISO Proportional
100
AcDbText
  0
LWPOLYLINE
  5
7958
330
1B
100
AcDbEntity
 67
     1
  8
RAHMEN025
100
AcDbPolyline
 90
        4
 70
     1
 43
0.0
 10
275.7088785391792
 20
-12.63330769137039
 10
319.9088785391793
 20
-12.63330769137039
 10
319.9088785391793
 20
0.1166923086296094
 10
275.7088785391792
 20
0.1166923086296094
  0
TEXT
  5
7959
330
1B
100
AcDbEntity
 67
     1
  8
RAHMEN025
 48
1.5
100
AcDbText
 10
272.0377994287429
 20
-20.71700097906591
 30
0.0
 40
2.5
  1
"Schutzvermerk DIN 34 beachten"
 41
0.8
  7
Stil1
100
AcDbText
  0
TEXT
  5
795A
330
1B
100
AcDbEntity
 67
     1
  8
RAHMEN025
100
AcDbText
 10
276.961191066573
 20
-16.00830769137039
 30
0.0
 40
2.5
  1
Ursprung
  7
ISO Proportional
100
AcDbText
  0
HATCH
  5
795B
330
1B
100
AcDbEntity
 67
     1
  8
RAHMEN025
370
    13
100
AcDbHatch
 10
0.0
 20
0.0
 30
0.0
210
0.0
220
0.0
230
1.0
  2
ANSI31
 70
     0
 71
     1
 91
       12
 92
        7
 72
     0
 73
     1
 93
       12
 10
278.2293734386035
 20
-7.354330829952203
 10
280.7221515386414
 20
-7.354330829952203
 10
280.9205455935513
 20
-6.613914137106903
 10
278.4277674935135
 20
-6.613914137106903
 10
278.5518145682632
 20
-6.150964151611248
 10
281.0445926683009
 20
-6.150964151611246
 10
281.3176798416495
 20
-5.131788945778964
 10
277.5223398998994
 20
-5.131788945778964
 10
276.5297576729693
 20
-8.836156247370324
 10
280.3250976147198
 20
-8.836156247370324
 10
280.5978399150216
 20
-7.818268125272425
 10
278.1050618149836
 20
-7.818268125272425
 97
       12
330
7980
330
7981
330
7982
330
7983
330
7990
330
7975
330
7976
330
7977
330
7984
330
7985
330
7986
330
7987
 92
        7
 72
     0
 73
     1
 93
       10
 10
283.1098715591655
 20
-5.131788945778964
 10
281.8486857118989
 20
-5.131788945778964
 10
280.856103484969
 20
-8.836156247370324
 10
282.1586653266816
 20
-8.836156247370324
 10
282.6305600908875
 20
-7.075021011529168
 10
283.3376953973366
 20
-8.836156247370324
 10
284.6117401376421
 20
-8.836156247370324
 10
285.6043223645717
 20
-5.131788945778964
 10
284.2889512250136
 20
-5.131788945778964
 10
283.8194615739142
 20
-6.883948177310104
 97
       10
330
7988
330
7978
330
797C
330
7979
330
797A
330
797B
330
796D
330
796E
330
798D
330
797D
 92
        7
 72
     1
 73
     1
 93
       16
 10
287.1306446835958
 20
-6.382964728846324
 42
-0.2918088509345686
 10
287.5333357489117
 20
-6.095074589371389
 42
-0.0567825308446797
 10
289.5350238987066
 20
-6.216579948835642
 42
0.0
 10
289.7989776209702
 20
-5.223314219612014
 42
0.0541842923752296
 10
286.6724239821704
 20
-5.208053846183329
 42
0.2748078422990356
 10
285.8863092401059
 20
-5.793053820074163
 42
0.0595537418813009
 10
285.3548328453825
 20
-7.671715857983572
 42
0.4195581459998819
 10
286.1694613822989
 20
-8.770945895452899
 42
0.0274034260658982
 10
286.9465120715208
 20
-8.836156247370324
 42
0.0
 10
288.773393868789
 20
-8.836156247370324
 42
0.0
 10
289.2789811787707
 20
-6.949278718856078
 42
0.0
 10
287.7142589997735
 20
-6.949278718856078
 42
-0.1650444911529426
 10
287.6023426818327
 20
-7.856847986723382
 42
-0.2878146020947726
 10
287.1879191910182
 20
-8.116948239335287
 42
0.0
 10
287.146228969183
 20
-8.116948239335287
 42
-0.4686158958349675
 10
286.7690663765744
 20
-7.663989293944704
 42
-0.0536408936041017
 97
       16
330
79A7
330
79A8
330
79A9
330
79AA
330
79C0
330
796F
330
7972
330
799E
330
799F
330
7998
330
79AB
330
79AC
330
79AD
330
79AE
330
79AF
330
79B0
 92
        7
 72
     0
 73
     1
 93
        4
 10
289.2324192592662
 20
-8.836156247370324
 10
290.5746843900558
 20
-8.836156247370324
 10
291.5672666169853
 20
-5.131788945778964
 10
290.2250014861958
 20
-5.131788945778964
 97
        4
330
79B1
330
7999
330
79A0
330
799A
 92
        7
 72
     0
 73
     1
 93
       10
 10
292.8110175630708
 20
-7.075021011529122
 10
293.5181528695204
 20
-8.836156247370324
 10
294.7921976098256
 20
-8.836156247370324
 10
295.7847798367554
 20
-5.131788945778964
 10
294.4694086971975
 20
-5.131788945778964
 10
293.999919046098
 20
-6.883948177310156
 10
293.2903290313491
 20
-5.131788945778964
 10
292.0291431840825
 20
-5.131788945778964
 10
291.0365609571526
 20
-8.836156247370324
 10
292.339122798865
 20
-8.836156247370324
 97
       10
330
79A3
330
799B
330
79A1
330
799C
330
799D
330
7996
330
79C1
330
79C6
330
79E5
330
7994
 92
        7
 72
     0
 73
     1
 93
       12
 10
297.1685680571301
 20
-6.613914137106903
 10
297.2926151318793
 20
-6.150964151611248
 10
299.7853932319171
 20
-6.150964151611246
 10
300.0584804052658
 20
-5.131788945778964
 10
296.2631404635155
 20
-5.131788945778964
 10
295.2705582365858
 20
-8.836156247370324
 10
299.0658981783358
 20
-8.836156247370324
 10
299.3386404786375
 20
-7.818268125272425
 10
296.8458623785996
 20
-7.818268125272425
 10
296.9701740022194
 20
-7.354330829952203
 10
299.4629521022572
 20
-7.354330829952203
 10
299.6613461571678
 20
-6.613914137106903
 97
       12
330
79C7
330
79C8
330
79C9
330
79C2
330
79C5
330
79C3
330
79CA
330
79CB
330
79CC
330
79CD
330
79CE
330
79CF
 92
        7
 72
     0
 73
     1
 93
       12
 10
301.4043034306839
 20
-6.613914137106903
 10
301.5283505054335
 20
-6.150964151611248
 10
304.0211286054714
 20
-6.150964151611248
 10
304.2942157788199
 20
-5.131788945778964
 10
300.4988758370699
 20
-5.131788945778964
 10
299.5062936101398
 20
-8.836156247370324
 10
303.3016335518903
 20
-8.836156247370324
 10
303.5743758521916
 20
-7.818268125272425
 10
301.0815977521538
 20
-7.818268125272425
 10
301.2059093757734
 20
-7.354330829952203
 10
303.6986874758111
 20
-7.354330829952203
 10
303.8970815307219
 20
-6.613914137106903
 97
       12
330
795C
330
79D0
330
795D
330
79FA
330
795E
330
79C4
330
795F
330
79F1
330
7960
330
79D1
330
7961
330
79FB
 92
        7
 72
     1
 73
     1
 93
       11
 10
305.5428032341441
 20
-7.242755103328205
 42
0.0
 10
306.5463315294167
 20
-8.826230425101002
 42
0.0
 10
308.255336016322
 20
-8.826230425101
 42
0.0
 10
307.2518077210494
 20
-7.242755103328263
 42
0.0
 10
308.0322258723879
 20
-7.242755103328263
 42
0.3394542588634887
 10
308.8471866787382
 20
-6.617413682470527
 42
0.0
 10
308.9633354078431
 20
-6.183940724216025
 42
0.4931454260311745
 10
308.1483746014929
 20
-5.121863123509811
 42
0.0
 10
304.8085326856575
 20
-5.121863123509811
 42
0.0
 10
303.8159504587279
 20
-8.826230425101002
 42
0.0
 10
305.1185123004404
 20
-8.826230425101002
 42
0.0
 97
       11
330
79FC
330
79FD
330
79FE
330
79F2
330
79F7
330
79F3
330
79F4
330
79F8
330
79F5
330
79FF
330
7A00
 92
       22
 72
     1
 73
     1
 93
        6
 10
305.6339636751108
 20
-6.902539705999647
 42
0.0
 10
305.8762155295894
 20
-5.998443476857801
 42
0.0
 10
306.990958395901
 20
-5.998443476857801
 42
-0.462218980900382
 10
307.3738175677417
 20
-6.445436748167535
 42
-0.2421880062400708
 10
307.0770343271091
 20
-6.850017038256822
 42
-0.0940682372986285
 10
306.7953646474784
 20
-6.902539705999657
 42
0.0
 97
        6
330
7A01
330
7A02
330
7A03
330
7A04
330
7A05
330
7A06
 92
        7
 72
     0
 73
     1
 93
        4
 10
311.0599921871174
 20
-5.131788945778964
 10
309.7177270563277
 20
-5.131788945778964
 10
308.7251448293983
 20
-8.836156247370324
 10
310.0674099601878
 20
-8.836156247370324
 97
        4
330
79F0
330
79F6
330
79F9
330
79EF
 92
        7
 72
     0
 73
     1
 93
       10
 10
312.3037431332021
 20
-7.075021011528711
 10
313.010878439652
 20
-8.836156247370324
 10
314.2849231799577
 20
-8.836156247370324
 10
315.2775054068873
 20
-5.131788945778964
 10
313.962134267329
 20
-5.131788945778964
 10
313.4926446162295
 20
-6.883948177310156
 10
312.7830546014807
 20
-5.131788945778964
 10
311.5218687542145
 20
-5.131788945778964
 10
310.5292865272844
 20
-8.836156247370324
 10
311.8318483689969
 20
-8.836156247370324
 97
       10
330
7A22
330
7A2E
330
7A2F
330
7A1B
330
7A1C
330
7A1F
330
7A1D
330
7A23
330
7A24
330
7A25
 92
        7
 72
     1
 73
     1
 93
       16
 10
316.7512446984141
 20
-6.382964728846268
 42
-0.2918088509345139
 10
317.1539357637299
 20
-6.095074589371389
 42
-0.0567825308446765
 10
319.1556239135247
 20
-6.216579948835612
 42
0.0
 10
319.4195776357884
 20
-5.223314219611978
 42
0.0541842923752316
 10
316.2930239969885
 20
-5.208053846183378
 42
0.2748078422989353
 10
315.5069092549245
 20
-5.793053820074462
 42
0.0595537418812928
 10
314.9754328602012
 20
-7.671715857983599
 42
0.4195581459999278
 10
315.7900613971177
 20
-8.770945895452972
 42
0.0274034260658874
 10
316.5671120863393
 20
-8.836156247370324
 42
0.0
 10
318.3939938836069
 20
-8.836156247370324
 42
0.0
 10
318.8995811935887
 20
-6.949278718856078
 42
0.0
 10
317.334859014592
 20
-6.949278718856078
 42
-0.1650444911529743
 10
317.2229426966513
 20
-7.856847986723556
 42
-0.287814602094675
 10
316.8085192058368
 20
-8.116948239335287
 42
0.0
 10
316.7668289840011
 20
-8.116948239335287
 42
-0.4686158958349675
 10
316.3896663913924
 20
-7.663989293944704
 42
-0.0536408936041064
 97
       16
330
7A26
330
79ED
330
7A30
330
79EE
330
7A27
330
7A28
330
7A1E
330
7A20
330
79EB
330
7A31
330
79EC
330
7A29
330
7A2A
330
7A2B
330
7A2C
330
7A2D
 75
     0
 76
     1
 52
0.0
 41
0.1
 77
     0
 78
     1
 53
45.0
 43
-1.042884657316449
 44
-91.38173434923658
 45
-0.2245064030267288
 46
0.2245064030267288
 79
     0
 47
0.0661482101908399
 98
       12
 10
278.0310156665261
 20
-6.929739289331649
 10
283.1285180590932
 20
-6.731294481370667
 10
286.6371881231458
 20
-6.995887558652015
 10
290.4106643341892
 20
-6.598997942729937
 10
293.2573220663845
 20
-6.731294481370667
 10
296.5673882790992
 20
-6.598997942729937
 10
300.8704737485044
 20
-6.665146212050302
 10
305.3721645870572
 20
-6.665146212050302
 10
305.3721645870572
 20
-6.665146212050302
 10
310.0724592769481
 20
-6.665146212050302
 10
312.1247000859816
 20
-6.665146212050302
 10
316.4939893688487
 20
-6.400553134768955
  0
LINE
  5
795C
102
{ACAD_REACTORS
330
795B
102
}
330
1B
100
AcDbEntity
 67
     1
  8
Defpoints
370
    13
100
AcDbLine
 10
303.8970815307219
 20
-6.613914137106903
 30
0.0
 11
301.4043034306839
 21
-6.613914137106903
 31
0.0
  0
LINE
  5
795D
102
{ACAD_REACTORS
330
795B
102
}
330
1B
100
AcDbEntity
 67
     1
  8
Defpoints
370
    13
100
AcDbLine
 10
304.0211286054714
 20
-6.150964151611248
 30
0.0
 11
301.5180745380672
 21
-6.150964151611248
 31
0.0
  0
LINE
  5
795E
102
{ACAD_REACTORS
330
795B
102
}
330
1B
100
AcDbEntity
 67
     1
  8
Defpoints
370
    13
100
AcDbLine
 10
304.2942157788199
 20
-5.131788945778964
 30
0.0
 11
300.4988758370699
 21
-5.131788945778964
 31
0.0
  0
LINE
  5
795F
102
{ACAD_REACTORS
330
795B
102
}
330
1B
100
AcDbEntity
 67
     1
  8
Defpoints
370
    13
100
AcDbLine
 10
299.5062936101398
 20
-8.836156247370324
 30
0.0
 11
303.3016335518903
 21
-8.836156247370324
 31
0.0
  0
LINE
  5
7960
102
{ACAD_REACTORS
330
795B
102
}
330
1B
100
AcDbEntity
 67
     1
  8
Defpoints
370
    13
100
AcDbLine
 10
301.0815977521538
 20
-7.818268125272425
 30
0.0
 11
303.5846518195582
 21
-7.818268125272425
 31
0.0
  0
LINE
  5
7961
102
{ACAD_REACTORS
330
795B
102
}
330
1B
100
AcDbEntity
 67
     1
  8
Defpoints
370
    13
100
AcDbLine
 10
301.2059093757733
 20
-7.354330829952203
 30
0.0
 11
303.6986874758111
 21
-7.354330829952203
 31
0.0
  0
HATCH
  5
7962
330
1B
100
AcDbEntity
 67
     1
  8
RAHMEN025
370
     9
100
AcDbHatch
 10
0.0
 20
0.0
 30
0.0
210
0.0
220
0.0
230
1.0
  2
SOLID
 70
     1
 71
     1
 91
        8
 92
        7
 72
     0
 73
     1
 93
       11
 10
284.4217860575253
 20
-4.462914590022734
 10
285.821503126099
 20
-4.462914590022734
 10
285.1550873341486
 20
-2.658846468612679
 10
286.8140853530288
 20
-0.7585472884313162
 10
285.219599043184
 20
-0.7585472884313162
 10
283.9235078517399
 20
-2.243154865120459
 10
284.321307252991
 20
-0.7585472884313162
 10
282.9790421222014
 20
-0.7585472884313162
 10
281.9864598952715
 20
-4.462914590022734
 10
283.328725026061
 20
-4.462914590022734
 10
283.7882636904146
 20
-2.747892946613735
 97
       11
330
7973
330
7974
330
798E
330
798F
330
797E
330
798A
330
798B
330
798C
330
797F
330
7970
330
7971
 92
        7
 72
     0
 73
     1
 93
       10
 10
288.4614170277077
 20
-0.7585472884313162
 10
287.2002311804411
 20
-0.7585472884313162
 10
286.2076489535115
 20
-4.462914590022734
 10
287.5102107952239
 20
-4.462914590022734
 10
287.9821055594291
 20
-2.701779354181496
 10
288.6892408658791
 20
-4.462914590022734
 10
289.9632856061845
 20
-4.462914590022734
 10
290.955867833114
 20
-0.7585472884313162
 10
289.6404966935561
 20
-0.7585472884313162
 10
289.1710070424566
 20
-2.510706519962528
 97
       10
330
79B2
330
79B3
330
79B4
330
79B5
330
79B6
330
79B7
330
79B8
330
79B9
330
79BA
330
79BB
 92
        7
 72
     0
 73
     1
 93
        8
 10
290.2700407929273
 20
-4.462914590022734
 10
291.868037308368
 20
-4.462914590022734
 10
292.1565694401641
 20
-3.93452924724545
 10
293.6599580476101
 20
-3.93452924724545
 10
293.686664136977
 20
-4.462914590022734
 10
294.9905298821278
 20
-4.462914590022734
 10
294.8033006836709
 20
-0.7585472884313162
 10
292.2928618440685
 20
-0.7585472884313162
 97
        8
330
7997
330
79BC
330
79BD
330
79BE
330
79A4
330
7995
330
79E6
330
79D4
 92
       22
 72
     0
 73
     1
 93
        3
 10
293.5325952222661
 20
-1.414630163493075
 10
293.6193184607549
 20
-3.130466857734319
 10
292.5956388400141
 20
-3.130466857734319
 97
        3
330
79BF
330
79A5
330
79A6
 92
        7
 72
     1
 73
     1
 93
       12
 10
297.3569117073657
 20
-0.7585472884313162
 42
0.0
 10
295.9227159729941
 20
-0.7585472884313162
 42
0.0
 10
295.2700636148585
 20
-3.194279048674474
 42
0.4488320008137725
 10
296.0575582520658
 20
-4.391114810805952
 42
0.0735650496629369
 10
298.1411914477456
 20
-4.387367184150772
 42
0.2985033964043282
 10
298.9880009936989
 20
-3.631324038154115
 42
0.0
 10
299.7577592038217
 20
-0.7585472884313162
 42
0.0
 10
298.2927428046662
 20
-0.7585472884313162
 42
0.0
 10
297.5614189444255
 20
-3.487885091636734
 42
-0.3394542588632696
 10
297.2280258872823
 20
-3.743706581987368
 42
0.0
 10
297.0068539933715
 20
-3.743706581987368
 42
-0.4931454260315976
 10
296.673460936228
 20
-3.309220290789149
 42
0.0
 97
       12
330
79D5
330
79D6
330
79D7
330
79D8
330
79D9
330
79DA
330
79DB
330
79DC
330
79DD
330
79DE
330
79DF
330
79E0
 92
        7
 72
     0
 73
     1
 93
       12
 10
299.3478953447084
 20
-4.462914590022734
 10
303.1432352864583
 20
-4.462914590022734
 10
303.41597758676
 20
-3.445026467924719
 10
300.9231994867222
 20
-3.445026467924719
 10
301.0475111103419
 20
-2.981089172604271
 10
303.5402892103799
 20
-2.981089172604271
 10
303.7386832652903
 20
-2.24067247975924
 10
301.2459051652525
 20
-2.24067247975924
 10
301.3699522400016
 20
-1.777722494263542
 10
303.8627303400394
 20
-1.777722494263542
 10
304.1358175133884
 20
-0.7585472884313162
 10
300.340477571638
 20
-0.7585472884313162
 97
       12
330
7963
330
79E1
330
7964
330
7A07
330
7965
330
79E2
330
7966
330
7A08
330
7967
330
79E3
330
7968
330
7A09
 92
        7
 72
     1
 73
     1
 93
       11
 10
303.6788481829463
 20
-4.462914590022734
 42
0.0
 10
304.9814100246587
 20
-4.462914590022734
 42
0.0
 10
305.4057009583622
 20
-2.879439268249704
 42
0.0
 10
306.4092292536348
 20
-4.462914590022734
 42
0.0
 10
308.1182337405404
 20
-4.462914590022734
 42
0.0
 10
307.1147054452676
 20
-2.87943926824974
 42
0.0
 10
307.8951235966063
 20
-2.87943926824974
 42
0.3394542588635565
 10
308.7100844029566
 20
-2.254097847391811
 42
0.0
 10
308.8262331320613
 20
-1.820624889137501
 42
0.4931454260311626
 10
308.0112723257111
 20
-0.7585472884313162
 42
0.0
 10
304.6714304098756
 20
-0.7585472884313162
 42
0.0
 97
       11
330
7A1A
330
7A0A
330
7A0B
330
7A0C
330
7A0D
330
7A0E
330
7A0F
330
7A10
330
7A11
330
7A12
330
7A13
 92
       22
 72
     1
 73
     1
 93
        6
 10
305.7391132538081
 20
-1.635127641779263
 42
0.0
 10
306.8538561202025
 20
-1.635127641779263
 42
-0.4622189808356573
 10
307.2367152919603
 20
-2.082120913089628
 42
-0.2421880062385626
 10
306.9399320513301
 20
-2.486701203177176
 42
-0.0940682372810069
 10
306.6582623717533
 20
-2.539223870921333
 42
0.0
 10
305.4968613993291
 20
-2.539223870921333
 42
0.0
 97
        6
330
7A14
330
7A15
330
7A16
330
7A17
330
7A18
330
7A19
 75
     0
 76
     1
 47
0.0617673955459683
 98
        8
 10
284.4025825062937
 20
-2.934118174985854
 10
288.482504449327
 20
-2.316444045333895
 10
292.3151585337954
 20
-2.254676718505919
 10
292.3151585337954
 20
-2.254676718505919
 10
296.333263132735
 20
-2.316444045333895
 10
300.5368197639554
 20
-2.378211372161757
 10
304.987642735931
 20
-2.007606549821474
 10
304.987642735931
 20
-2.007606549821474
  0
LINE
  5
7963
102
{ACAD_REACTORS
330
7962
102
}
330
1B
100
AcDbEntity
 67
     1
  8
RAHMEN025
370
     9
100
AcDbLine
 10
303.7386832652903
 20
-2.24067247975924
 30
0.0
 11
301.2459051652525
 21
-2.24067247975924
 31
0.0
  0
LINE
  5
7964
102
{ACAD_REACTORS
330
7962
102
}
330
1B
100
AcDbEntity
 67
     1
  8
RAHMEN025
370
     9
100
AcDbLine
 10
303.8627303400394
 20
-1.777722494263542
 30
0.0
 11
301.3596762726355
 21
-1.777722494263542
 31
0.0
  0
LINE
  5
7965
102
{ACAD_REACTORS
330
7962
102
}
330
1B
100
AcDbEntity
 67
     1
  8
RAHMEN025
370
     9
100
AcDbLine
 10
304.1358175133884
 20
-0.7585472884313162
 30
0.0
 11
300.340477571638
 21
-0.7585472884313162
 31
0.0
  0
LINE
  5
7966
102
{ACAD_REACTORS
330
7962
102
}
330
1B
100
AcDbEntity
 67
     1
  8
RAHMEN025
370
     9
100
AcDbLine
 10
299.3478953447084
 20
-4.462914590022734
 30
0.0
 11
303.1432352864583
 21
-4.462914590022734
 31
0.0
  0
LINE
  5
7967
102
{ACAD_REACTORS
330
7962
102
}
330
1B
100
AcDbEntity
 67
     1
  8
RAHMEN025
370
     9
100
AcDbLine
 10
300.9231994867221
 20
-3.445026467924719
 30
0.0
 11
303.4262535541264
 21
-3.445026467924719
 31
0.0
  0
LINE
  5
7968
102
{ACAD_REACTORS
330
7962
102
}
330
1B
100
AcDbEntity
 67
     1
  8
RAHMEN025
370
     9
100
AcDbLine
 10
301.0475111103419
 20
-2.981089172604271
 30
0.0
 11
303.5402892103799
 21
-2.981089172604271
 31
0.0
  0
HATCH
  5
7969
330
1B
100
AcDbEntity
 67
     1
  8
RAHMEN025
 62
   154
370
     9
100
AcDbHatch
 10
0.0
 20
0.0
 30
0.0
210
0.0
220
0.0
230
1.0
  2
SOLID
 70
     1
 71
     1
 91
        1
 92
        7
 72
     0
 73
     1
 93
        4
 10
317.6026101359197
 20
-11.64726055541333
 10
318.1981594720777
 20
-9.424640174458432
 10
295.147153553975
 20
-9.424640174458432
 10
294.5516042178171
 20
-11.64726055541334
 97
        1
330
796A
 75
     0
 76
     1
 47
0.0579061006172788
 98
        1
 10
304.3635984079655
 20
-10.59885184343201
  0
LWPOLYLINE
  5
796A
102
{ACAD_REACTORS
330
7969
102
}
330
1B
100
AcDbEntity
 67
     1
  8
RAHMEN025
370
     9
100
AcDbPolyline
 90
        4
 70
     1
 43
0.0
 10
295.147153553975
 20
-9.424640174458432
 10
294.5516042178171
 20
-11.64726055541333
 10
317.6026101359198
 20
-11.64726055541333
 10
318.1981594720778
 20
-9.424640174458432
  0
LINE
  5
796B
330
1B
100
AcDbEntity
 67
     1
  8
RAHMEN025
100
AcDbLine
 10
286.1088785391793
 20
21.36669230862958
 30
0.0
 11
286.1088785391793
 21
0.1166923086296379
 31
0.0
  0
TEXT
  5
796C
330
1B
100
AcDbEntity
 67
     1
  8
RAHMEN025
100
AcDbText
 10
276.2078121030635
 20
9.49169230862961
 30
0.0
 40
2.5
  1
Gepr.
  7
ISO Proportional
100
AcDbText
  0
LINE
  5
796D
102
{ACAD_REACTORS
330
795B
102
}
330
1B
100
AcDbEntity
 67
     1
  8
Defpoints
370
    13
100
AcDbLine
 10
284.6117401376421
 20
-8.836156247370324
 30
0.0
 11
285.6043223645717
 21
-5.131788945778964
 31
0.0
  0
LINE
  5
796E
102
{ACAD_REACTORS
330
795B
102
}
330
1B
100
AcDbEntity
 67
     1
  8
Defpoints
370
    13
100
AcDbLine
 10
285.6043223645721
 20
-5.131788945778964
 30
0.0
 11
284.2889512250137
 21
-5.131788945778964
 31
0.0
  0
ARC
  5
796F
102
{ACAD_REACTORS
330
795B
102
}
330
1B
100
AcDbEntity
 67
     1
  8
Defpoints
370
    13
100
AcDbCircle
 10
293.4790154724741
 20
-8.955550916464773
 30
0.0
 40
8.224997010073714
100
AcDbArc
 50
157.3874044007955
 51
171.0200151799534
  0
LINE
  5
7970
102
{ACAD_REACTORS
330
7962
102
}
330
1B
100
AcDbEntity
 67
     1
  8
RAHMEN025
370
     9
100
AcDbLine
 10
284.3809027428051
 20
-4.462914590022734
 30
0.0
 11
285.8215031260989
 21
-4.462914590022734
 31
0.0
  0
LINE
  5
7971
102
{ACAD_REACTORS
330
7962
102
}
330
1B
100
AcDbEntity
 67
     1
  8
RAHMEN025
370
     9
100
AcDbLine
 10
285.1550873341486
 20
-2.658846468612651
 30
0.0
 11
285.8215031260989
 21
-4.462914590022734
 31
0.0
  0
ARC
  5
7972
102
{ACAD_REACTORS
330
795B
102
}
330
1B
100
AcDbEntity
 67
     1
  8
Defpoints
370
    13
100
AcDbCircle
 10
286.3018420525554
 20
-7.82136828170168
 30
0.0
 40
0.9587608077068694
100
AcDbArc
 50
171.0200151799534
 51
262.0635437036931
  0
LINE
  5
7973
102
{ACAD_REACTORS
330
7962
102
}
330
1B
100
AcDbEntity
 67
     1
  8
RAHMEN025
370
     9
100
AcDbLine
 10
286.8140853530288
 20
-0.7585472884313162
 30
0.0
 11
285.1550873341486
 21
-2.658846468612651
 31
0.0
  0
LINE
  5
7974
102
{ACAD_REACTORS
330
7962
102
}
330
1B
100
AcDbEntity
 67
     1
  8
RAHMEN025
370
     9
100
AcDbLine
 10
286.8140853530288
 20
-0.7585472884313162
 30
0.0
 11
285.219599043184
 21
-0.7585472884313162
 31
0.0
  0
LINE
  5
7975
102
{ACAD_REACTORS
330
795B
102
}
330
1B
100
AcDbEntity
 67
     1
  8
Defpoints
370
    13
100
AcDbLine
 10
277.5223398998994
 20
-5.131788945778964
 30
0.0
 11
276.5297576729693
 21
-8.836156247370324
 31
0.0
  0
LINE
  5
7976
102
{ACAD_REACTORS
330
795B
102
}
330
1B
100
AcDbEntity
 67
     1
  8
Defpoints
370
    13
100
AcDbLine
 10
276.5297576729698
 20
-8.836156247370324
 30
0.0
 11
280.3250976147198
 21
-8.836156247370324
 31
0.0
  0
LINE
  5
7977
102
{ACAD_REACTORS
330
795B
102
}
330
1B
100
AcDbEntity
 67
     1
  8
Defpoints
370
    13
100
AcDbLine
 10
280.3250976147198
 20
-8.836156247370324
 30
0.0
 11
280.5978399150215
 21
-7.818268125272425
 31
0.0
  0
LINE
  5
7978
102
{ACAD_REACTORS
330
795B
102
}
330
1B
100
AcDbEntity
 67
     1
  8
Defpoints
370
    13
100
AcDbLine
 10
281.8486857118988
 20
-5.131788945778964
 30
0.0
 11
280.856103484969
 21
-8.836156247370324
 31
0.0
  0
LINE
  5
7979
102
{ACAD_REACTORS
330
795B
102
}
330
1B
100
AcDbEntity
 67
     1
  8
Defpoints
370
    13
100
AcDbLine
 10
282.6305600908875
 20
-7.075021011529145
 30
0.0
 11
282.1586653266816
 21
-8.836156247370324
 31
0.0
  0
LINE
  5
797A
102
{ACAD_REACTORS
330
795B
102
}
330
1B
100
AcDbEntity
 67
     1
  8
Defpoints
370
    13
100
AcDbLine
 10
283.3376953973366
 20
-8.836156247370324
 30
0.0
 11
282.6305600908875
 21
-7.075021011529145
 31
0.0
  0
LINE
  5
797B
102
{ACAD_REACTORS
330
795B
102
}
330
1B
100
AcDbEntity
 67
     1
  8
Defpoints
370
    13
100
AcDbLine
 10
283.3376953973366
 20
-8.836156247370324
 30
0.0
 11
284.6117401376421
 21
-8.836156247370324
 31
0.0
  0
LINE
  5
797C
102
{ACAD_REACTORS
330
795B
102
}
330
1B
100
AcDbEntity
 67
     1
  8
Defpoints
370
    13
100
AcDbLine
 10
280.856103484969
 20
-8.836156247370324
 30
0.0
 11
282.1586653266816
 21
-8.836156247370324
 31
0.0
  0
LINE
  5
797D
102
{ACAD_REACTORS
330
795B
102
}
330
1B
100
AcDbEntity
 67
     1
  8
Defpoints
370
    13
100
AcDbLine
 10
283.1098715591655
 20
-5.131788945778964
 30
0.0
 11
283.8194615739142
 21
-6.883948177310145
 31
0.0
  0
LINE
  5
797E
102
{ACAD_REACTORS
330
7962
102
}
330
1B
100
AcDbEntity
 67
     1
  8
RAHMEN025
370
     9
100
AcDbLine
 10
284.321307252991
 20
-0.7585472884313162
 30
0.0
 11
282.9790421222014
 21
-0.7585472884313162
 31
0.0
  0
LINE
  5
797F
102
{ACAD_REACTORS
330
7962
102
}
330
1B
100
AcDbEntity
 67
     1
  8
RAHMEN025
370
     9
100
AcDbLine
 10
283.7882636904147
 20
-2.747892946613802
 30
0.0
 11
284.4168772147454
 21
-4.449625759116742
 31
0.0
  0
LINE
  5
7980
102
{ACAD_REACTORS
330
795B
102
}
330
1B
100
AcDbEntity
 67
     1
  8
Defpoints
370
    13
100
AcDbLine
 10
280.9205455935514
 20
-6.613914137106903
 30
0.0
 11
278.4277674935135
 21
-6.613914137106903
 31
0.0
  0
LINE
  5
7981
102
{ACAD_REACTORS
330
795B
102
}
330
1B
100
AcDbEntity
 67
     1
  8
Defpoints
370
    13
100
AcDbLine
 10
278.5518145682632
 20
-6.150964151611248
 30
0.0
 11
278.4277674935135
 21
-6.613914137106903
 31
0.0
  0
LINE
  5
7982
102
{ACAD_REACTORS
330
795B
102
}
330
1B
100
AcDbEntity
 67
     1
  8
Defpoints
370
    13
100
AcDbLine
 10
281.044592668301
 20
-6.150964151611248
 30
0.0
 11
278.5415386008969
 21
-6.150964151611248
 31
0.0
  0
LINE
  5
7983
102
{ACAD_REACTORS
330
795B
102
}
330
1B
100
AcDbEntity
 67
     1
  8
Defpoints
370
    13
100
AcDbLine
 10
281.044592668301
 20
-6.150964151611248
 30
0.0
 11
281.3176798416494
 21
-5.131788945778964
 31
0.0
  0
LINE
  5
7984
102
{ACAD_REACTORS
330
795B
102
}
330
1B
100
AcDbEntity
 67
     1
  8
Defpoints
370
    13
100
AcDbLine
 10
278.1050618149836
 20
-7.818268125272425
 30
0.0
 11
280.6081158823877
 21
-7.818268125272425
 31
0.0
  0
LINE
  5
7985
102
{ACAD_REACTORS
330
795B
102
}
330
1B
100
AcDbEntity
 67
     1
  8
Defpoints
370
    13
100
AcDbLine
 10
278.2293734386035
 20
-7.354330829952203
 30
0.0
 11
278.1050618149836
 21
-7.818268125272425
 31
0.0
  0
LINE
  5
7986
102
{ACAD_REACTORS
330
795B
102
}
330
1B
100
AcDbEntity
 67
     1
  8
Defpoints
370
    13
100
AcDbLine
 10
278.2293734386035
 20
-7.354330829952203
 30
0.0
 11
280.7221515386413
 21
-7.354330829952203
 31
0.0
  0
LINE
  5
7987
102
{ACAD_REACTORS
330
795B
102
}
330
1B
100
AcDbEntity
 67
     1
  8
Defpoints
370
    13
100
AcDbLine
 10
280.7221515386413
 20
-7.354330829952203
 30
0.0
 11
280.9205455935514
 21
-6.613914137106903
 31
0.0
  0
LINE
  5
7988
102
{ACAD_REACTORS
330
795B
102
}
330
1B
100
AcDbEntity
 67
     1
  8
Defpoints
370
    13
100
AcDbLine
 10
283.1098715591655
 20
-5.131788945778964
 30
0.0
 11
281.8486857118988
 21
-5.131788945778964
 31
0.0
  0
LINE
  5
7989
330
1B
100
AcDbEntity
 67
     1
  8
Defpoints
100
AcDbLine
 10
278.2293734386035
 20
-7.354330829952203
 30
0.0
 11
278.1153377823498
 21
-7.779917692964204
 31
0.0
  0
LINE
  5
798A
102
{ACAD_REACTORS
330
7962
102
}
330
1B
100
AcDbEntity
 67
     1
  8
RAHMEN025
370
     9
100
AcDbLine
 10
282.9790421222014
 20
-0.7585472884313162
 30
0.0
 11
281.9864598952715
 21
-4.462914590022734
 31
0.0
  0
LINE
  5
798B
102
{ACAD_REACTORS
330
7962
102
}
330
1B
100
AcDbEntity
 67
     1
  8
RAHMEN025
370
     9
100
AcDbLine
 10
281.9864598952715
 20
-4.462914590022734
 30
0.0
 11
283.328725026061
 21
-4.462914590022734
 31
0.0
  0
LINE
  5
798C
102
{ACAD_REACTORS
330
7962
102
}
330
1B
100
AcDbEntity
 67
     1
  8
RAHMEN025
370
     9
100
AcDbLine
 10
283.7882636904147
 20
-2.747892946613802
 30
0.0
 11
283.328725026061
 21
-4.462914590022734
 31
0.0
  0
LINE
  5
798D
102
{ACAD_REACTORS
330
795B
102
}
330
1B
100
AcDbEntity
 67
     1
  8
Defpoints
370
    13
100
AcDbLine
 10
283.8194615739142
 20
-6.883948177310145
 30
0.0
 11
284.2889512250137
 21
-5.131788945778964
 31
0.0
  0
LINE
  5
798E
102
{ACAD_REACTORS
330
7962
102
}
330
1B
100
AcDbEntity
 67
     1
  8
RAHMEN025
370
     9
100
AcDbLine
 10
285.219599043184
 20
-0.7585472884313162
 30
0.0
 11
283.92350785174
 21
-2.243154865120516
 31
0.0
  0
LINE
  5
798F
102
{ACAD_REACTORS
330
7962
102
}
330
1B
100
AcDbEntity
 67
     1
  8
RAHMEN025
370
     9
100
AcDbLine
 10
284.321307252991
 20
-0.7585472884313162
 30
0.0
 11
283.92350785174
 21
-2.243154865120516
 31
0.0
  0
LINE
  5
7990
102
{ACAD_REACTORS
330
795B
102
}
330
1B
100
AcDbEntity
 67
     1
  8
Defpoints
370
    13
100
AcDbLine
 10
281.3176798416494
 20
-5.131788945778964
 30
0.0
 11
277.5223398998994
 21
-5.131788945778964
 31
0.0
  0
HATCH
  5
7991
330
1B
100
AcDbEntity
 67
     1
  8
RAHMEN025
 62
   154
370
     9
100
AcDbHatch
 10
0.0
 20
0.0
 30
0.0
210
0.0
220
0.0
230
1.0
  2
SOLID
 70
     1
 71
     1
 91
        1
 92
        7
 72
     0
 73
     1
 93
        4
 10
281.230986253913
 20
-4.403165288717403
 10
281.8265355900712
 20
-2.180544907762438
 10
278.3749966823264
 20
-2.180544907762438
 10
277.7794473461682
 20
-4.403165288717403
 97
        1
330
7992
 75
     0
 76
     1
 47
0.0587514446152511
 98
        1
 10
279.5829394221588
 20
-3.597179764687069
  0
LWPOLYLINE
  5
7992
102
{ACAD_REACTORS
330
7991
102
}
330
1B
100
AcDbEntity
 67
     1
  8
RAHMEN025
 62
   154
370
     9
100
AcDbPolyline
 90
        4
 70
     1
 43
0.0
 10
278.3749966823264
 20
-2.180544907762438
 10
277.7794473461682
 20
-4.403165288717403
 10
281.230986253913
 20
-4.403165288717403
 10
281.8265355900711
 20
-2.180544907762438
  0
TEXT
  5
7993
330
1B
100
AcDbEntity
 67
     1
  8
RAHMEN025
100
AcDbText
 10
276.2078121030635
 20
5.241692308629609
 30
0.0
 40
2.5
  1
Norm
  7
ISO Proportional
100
AcDbText
  0
LINE
  5
7994
102
{ACAD_REACTORS
330
795B
102
}
330
1B
100
AcDbEntity
 67
     1
  8
Defpoints
370
    13
100
AcDbLine
 10
293.2903290313491
 20
-5.131788945778964
 30
0.0
 11
293.999919046098
 21
-6.883948177310145
 31
0.0
  0
LINE
  5
7995
102
{ACAD_REACTORS
330
7962
102
}
330
1B
100
AcDbEntity
 67
     1
  8
RAHMEN025
370
     9
100
AcDbLine
 10
293.686664136977
 20
-4.462914590022734
 30
0.0
 11
293.6599580476102
 21
-3.93452924724545
 31
0.0
  0
LINE
  5
7996
102
{ACAD_REACTORS
330
795B
102
}
330
1B
100
AcDbEntity
 67
     1
  8
Defpoints
370
    13
100
AcDbLine
 10
293.5181528695204
 20
-8.836156247370324
 30
0.0
 11
294.7921976098256
 21
-8.836156247370324
 31
0.0
  0
LINE
  5
7997
102
{ACAD_REACTORS
330
7962
102
}
330
1B
100
AcDbEntity
 67
     1
  8
RAHMEN025
370
     9
100
AcDbLine
 10
294.8033006836709
 20
-0.7585472884313162
 30
0.0
 11
292.2928618440685
 21
-0.7585472884313162
 31
0.0
  0
LINE
  5
7998
102
{ACAD_REACTORS
330
795B
102
}
330
1B
100
AcDbEntity
 67
     1
  8
Defpoints
370
    13
100
AcDbLine
 10
288.7733938687889
 20
-8.836156247370324
 30
0.0
 11
289.2789811787707
 21
-6.949278718856078
 31
0.0
  0
LINE
  5
7999
102
{ACAD_REACTORS
330
795B
102
}
330
1B
100
AcDbEntity
 67
     1
  8
Defpoints
370
    13
100
AcDbLine
 10
290.2250014861958
 20
-5.131788945778964
 30
0.0
 11
289.2324192592662
 21
-8.836156247370324
 31
0.0
  0
LINE
  5
799A
102
{ACAD_REACTORS
330
795B
102
}
330
1B
100
AcDbEntity
 67
     1
  8
Defpoints
370
    13
100
AcDbLine
 10
291.5672666169854
 20
-5.131788945778964
 30
0.0
 11
290.5746843900558
 21
-8.836156247370324
 31
0.0
  0
LINE
  5
799B
102
{ACAD_REACTORS
330
795B
102
}
330
1B
100
AcDbEntity
 67
     1
  8
Defpoints
370
    13
100
AcDbLine
 10
292.0291431840825
 20
-5.131788945778964
 30
0.0
 11
291.0365609571527
 21
-8.836156247370324
 31
0.0
  0
LINE
  5
799C
102
{ACAD_REACTORS
330
795B
102
}
330
1B
100
AcDbEntity
 67
     1
  8
Defpoints
370
    13
100
AcDbLine
 10
292.8110175630706
 20
-7.075021011529145
 30
0.0
 11
292.3391227988649
 21
-8.836156247370324
 31
0.0
  0
LINE
  5
799D
102
{ACAD_REACTORS
330
795B
102
}
330
1B
100
AcDbEntity
 67
     1
  8
Defpoints
370
    13
100
AcDbLine
 10
293.5181528695204
 20
-8.836156247370324
 30
0.0
 11
292.8110175630706
 21
-7.075021011529145
 31
0.0
  0
ARC
  5
799E
102
{ACAD_REACTORS
330
795B
102
}
330
1B
100
AcDbEntity
 67
     1
  8
Defpoints
370
    13
100
AcDbCircle
 10
287.152450555931
 20
-1.719882382685653
 30
0.0
 40
7.119253077153191
100
AcDbArc
 50
262.0635437036931
 51
271.6576250419802
  0
LINE
  5
799F
102
{ACAD_REACTORS
330
795B
102
}
330
1B
100
AcDbEntity
 67
     1
  8
Defpoints
370
    13
100
AcDbLine
 10
288.7733938687889
 20
-8.836156247370324
 30
0.0
 11
287.0443495376495
 21
-8.836156247370324
 31
0.0
  0
LINE
  5
79A0
102
{ACAD_REACTORS
330
795B
102
}
330
1B
100
AcDbEntity
 67
     1
  8
Defpoints
370
    13
100
AcDbLine
 10
289.2324192592662
 20
-8.836156247370324
 30
0.0
 11
290.5746843900558
 21
-8.836156247370324
 31
0.0
  0
LINE
  5
79A1
102
{ACAD_REACTORS
330
795B
102
}
330
1B
100
AcDbEntity
 67
     1
  8
Defpoints
370
    13
100
AcDbLine
 10
291.0365609571527
 20
-8.836156247370324
 30
0.0
 11
292.3391227988649
 21
-8.836156247370324
 31
0.0
  0
ARC
  5
79A2
330
1B
100
AcDbEntity
 67
     1
  8
Defpoints
100
AcDbCircle
 10
287.9480998659269
 20
-7.685643278122114
 30
0.0
 40
1.150512969248243
100
AcDbArc
 50
270.0
 51
270.0
  0
LINE
  5
79A3
102
{ACAD_REACTORS
330
795B
102
}
330
1B
100
AcDbEntity
 67
     1
  8
Defpoints
370
    13
100
AcDbLine
 10
293.2903290313491
 20
-5.131788945778964
 30
0.0
 11
292.0291431840825
 21
-5.131788945778964
 31
0.0
  0
LINE
  5
79A4
102
{ACAD_REACTORS
330
7962
102
}
330
1B
100
AcDbEntity
 67
     1
  8
RAHMEN025
370
     9
100
AcDbLine
 10
292.1565694401641
 20
-3.93452924724545
 30
0.0
 11
293.6599580476102
 21
-3.93452924724545
 31
0.0
  0
LINE
  5
79A5
102
{ACAD_REACTORS
330
7962
102
}
330
1B
100
AcDbEntity
 67
     1
  8
RAHMEN025
370
     9
100
AcDbLine
 10
292.5956388400141
 20
-3.130466857734319
 30
0.0
 11
293.6193184607548
 21
-3.130466857734319
 31
0.0
  0
LINE
  5
79A6
102
{ACAD_REACTORS
330
7962
102
}
330
1B
100
AcDbEntity
 67
     1
  8
RAHMEN025
370
     9
100
AcDbLine
 10
292.5956388400141
 20
-3.130466857734319
 30
0.0
 11
293.5325952222662
 21
-1.414630163493015
 31
0.0
  0
ARC
  5
79A7
102
{ACAD_REACTORS
330
795B
102
}
330
1B
100
AcDbEntity
 67
     1
  8
Defpoints
370
    13
100
AcDbCircle
 10
287.5576307346445
 20
-6.554638043590301
 30
0.0
 40
0.4602051876992975
100
AcDbArc
 50
93.02614479233048
 51
158.0969939507942
  0
ARC
  5
79A8
102
{ACAD_REACTORS
330
795B
102
}
330
1B
100
AcDbEntity
 67
     1
  8
Defpoints
370
    13
100
AcDbCircle
 10
288.0009454236269
 20
-14.94036965154641
 30
0.0
 40
8.85764661435673
100
AcDbArc
 50
80.0265067162775
 51
93.02614479233048
  0
LINE
  5
79A9
102
{ACAD_REACTORS
330
795B
102
}
330
1B
100
AcDbEntity
 67
     1
  8
Defpoints
370
    13
100
AcDbLine
 10
289.5350238987066
 20
-6.216579948835729
 30
0.0
 11
289.7989776209702
 21
-5.223314219612035
 31
0.0
  0
ARC
  5
79AA
102
{ACAD_REACTORS
330
795B
102
}
330
1B
100
AcDbEntity
 67
     1
  8
Defpoints
370
    13
100
AcDbCircle
 10
288.1654979380722
 20
-19.59888503057878
 30
0.0
 40
14.46807838019826
100
AcDbArc
 50
83.51735091136804
 51
95.92334440423654
  0
LINE
  5
79AB
102
{ACAD_REACTORS
330
795B
102
}
330
1B
100
AcDbEntity
 67
     1
  8
Defpoints
370
    13
100
AcDbLine
 10
287.7142589997737
 20
-6.949278718856078
 30
0.0
 11
289.2789811787707
 21
-6.949278718856078
 31
0.0
  0
ARC
  5
79AC
102
{ACAD_REACTORS
330
795B
102
}
330
1B
100
AcDbEntity
 67
     1
  8
Defpoints
370
    13
100
AcDbCircle
 10
286.3210139044431
 20
-7.238156678173965
 30
0.0
 40
1.422878199650913
100
AcDbArc
 50
334.2263645027383
 51
11.71383119333059
  0
ARC
  5
79AD
102
{ACAD_REACTORS
330
795B
102
}
330
1B
100
AcDbEntity
 67
     1
  8
Defpoints
370
    13
100
AcDbCircle
 10
287.1879191910186
 20
-7.6567430516358
 30
0.0
 40
0.4602051876992975
100
AcDbArc
 50
270.0
 51
334.2263645027491
  0
LINE
  5
79AE
102
{ACAD_REACTORS
330
795B
102
}
330
1B
100
AcDbEntity
 67
     1
  8
Defpoints
370
    13
100
AcDbLine
 10
287.146228969183
 20
-8.116948239335287
 30
0.0
 11
287.1879191910186
 21
-8.116948239335287
 31
0.0
  0
ARC
  5
79AF
102
{ACAD_REACTORS
330
795B
102
}
330
1B
100
AcDbEntity
 67
     1
  8
Defpoints
370
    13
100
AcDbCircle
 10
287.146228969183
 20
-7.733443916252525
 30
0.0
 40
0.3835043230827479
100
AcDbArc
 50
171.2985646492635
 51
270.0
  0
ARC
  5
79B0
102
{ACAD_REACTORS
330
795B
102
}
330
1B
100
AcDbEntity
 67
     1
  8
Defpoints
370
    13
100
AcDbCircle
 10
292.9030496747463
 20
-8.703808457679429
 30
0.0
 40
6.22149298766157
100
AcDbArc
 50
158.0969939507942
 51
170.4856136403678
  0
LINE
  5
79B1
102
{ACAD_REACTORS
330
795B
102
}
330
1B
100
AcDbEntity
 67
     1
  8
Defpoints
370
    13
100
AcDbLine
 10
291.5672666169854
 20
-5.131788945778964
 30
0.0
 11
290.2250014861958
 21
-5.131788945778964
 31
0.0
  0
LINE
  5
79B2
102
{ACAD_REACTORS
330
7962
102
}
330
1B
100
AcDbEntity
 67
     1
  8
RAHMEN025
370
     9
100
AcDbLine
 10
288.4614170277078
 20
-0.7585472884313162
 30
0.0
 11
287.2002311804411
 21
-0.7585472884313162
 31
0.0
  0
LINE
  5
79B3
102
{ACAD_REACTORS
330
7962
102
}
330
1B
100
AcDbEntity
 67
     1
  8
RAHMEN025
370
     9
100
AcDbLine
 10
287.2002311804411
 20
-0.7585472884313162
 30
0.0
 11
286.2076489535114
 21
-4.462914590022734
 31
0.0
  0
LINE
  5
79B4
102
{ACAD_REACTORS
330
7962
102
}
330
1B
100
AcDbEntity
 67
     1
  8
RAHMEN025
370
     9
100
AcDbLine
 10
286.2076489535114
 20
-4.462914590022734
 30
0.0
 11
287.5102107952239
 21
-4.462914590022734
 31
0.0
  0
LINE
  5
79B5
102
{ACAD_REACTORS
330
7962
102
}
330
1B
100
AcDbEntity
 67
     1
  8
RAHMEN025
370
     9
100
AcDbLine
 10
287.9821055594293
 20
-2.701779354181496
 30
0.0
 11
287.5102107952239
 21
-4.462914590022734
 31
0.0
  0
LINE
  5
79B6
102
{ACAD_REACTORS
330
7962
102
}
330
1B
100
AcDbEntity
 67
     1
  8
RAHMEN025
370
     9
100
AcDbLine
 10
288.6892408658791
 20
-4.462914590022734
 30
0.0
 11
287.9821055594293
 21
-2.701779354181496
 31
0.0
  0
LINE
  5
79B7
102
{ACAD_REACTORS
330
7962
102
}
330
1B
100
AcDbEntity
 67
     1
  8
RAHMEN025
370
     9
100
AcDbLine
 10
288.6892408658791
 20
-4.462914590022734
 30
0.0
 11
289.9632856061844
 21
-4.462914590022734
 31
0.0
  0
LINE
  5
79B8
102
{ACAD_REACTORS
330
7962
102
}
330
1B
100
AcDbEntity
 67
     1
  8
RAHMEN025
370
     9
100
AcDbLine
 10
289.9632856061844
 20
-4.462914590022734
 30
0.0
 11
290.9558678331141
 21
-0.7585472884313162
 31
0.0
  0
LINE
  5
79B9
102
{ACAD_REACTORS
330
7962
102
}
330
1B
100
AcDbEntity
 67
     1
  8
RAHMEN025
370
     9
100
AcDbLine
 10
290.9558678331141
 20
-0.7585472884313162
 30
0.0
 11
289.6404966935561
 21
-0.7585472884313162
 31
0.0
  0
LINE
  5
79BA
102
{ACAD_REACTORS
330
7962
102
}
330
1B
100
AcDbEntity
 67
     1
  8
RAHMEN025
370
     9
100
AcDbLine
 10
289.1710070424566
 20
-2.510706519962468
 30
0.0
 11
289.6404966935561
 21
-0.7585472884313162
 31
0.0
  0
LINE
  5
79BB
102
{ACAD_REACTORS
330
7962
102
}
330
1B
100
AcDbEntity
 67
     1
  8
RAHMEN025
370
     9
100
AcDbLine
 10
288.4614170277078
 20
-0.7585472884313162
 30
0.0
 11
289.1710070424566
 21
-2.510706519962468
 31
0.0
  0
LINE
  5
79BC
102
{ACAD_REACTORS
330
7962
102
}
330
1B
100
AcDbEntity
 67
     1
  8
RAHMEN025
370
     9
100
AcDbLine
 10
290.2700407929273
 20
-4.462914590022734
 30
0.0
 11
292.2928618440685
 21
-0.7585472884313162
 31
0.0
  0
LINE
  5
79BD
102
{ACAD_REACTORS
330
7962
102
}
330
1B
100
AcDbEntity
 67
     1
  8
RAHMEN025
370
     9
100
AcDbLine
 10
290.2700407929273
 20
-4.462914590022734
 30
0.0
 11
291.868037308368
 21
-4.462914590022734
 31
0.0
  0
LINE
  5
79BE
102
{ACAD_REACTORS
330
7962
102
}
330
1B
100
AcDbEntity
 67
     1
  8
RAHMEN025
370
     9
100
AcDbLine
 10
291.868037308368
 20
-4.462914590022734
 30
0.0
 11
292.1565694401641
 21
-3.93452924724545
 31
0.0
  0
LINE
  5
79BF
102
{ACAD_REACTORS
330
7962
102
}
330
1B
100
AcDbEntity
 67
     1
  8
RAHMEN025
370
     9
100
AcDbLine
 10
293.6193184607548
 20
-3.130466857734319
 30
0.0
 11
293.5325952222662
 21
-1.414630163493015
 31
0.0
  0
ARC
  5
79C0
102
{ACAD_REACTORS
330
795B
102
}
330
1B
100
AcDbEntity
 67
     1
  8
Defpoints
370
    13
100
AcDbCircle
 10
286.7713659946692
 20
-6.161695689098081
 30
0.0
 40
0.9587608077068694
100
AcDbArc
 50
95.92334440423654
 51
157.3874044007997
  0
LINE
  5
79C1
102
{ACAD_REACTORS
330
795B
102
}
330
1B
100
AcDbEntity
 67
     1
  8
Defpoints
370
    13
100
AcDbLine
 10
294.7921976098256
 20
-8.836156247370324
 30
0.0
 11
295.7847798367554
 21
-5.131788945778964
 31
0.0
  0
LINE
  5
79C2
102
{ACAD_REACTORS
330
795B
102
}
330
1B
100
AcDbEntity
 67
     1
  8
Defpoints
370
    13
100
AcDbLine
 10
296.2631404635155
 20
-5.131788945778964
 30
0.0
 11
295.2705582365858
 21
-8.836156247370324
 31
0.0
  0
LINE
  5
79C3
102
{ACAD_REACTORS
330
795B
102
}
330
1B
100
AcDbEntity
 67
     1
  8
Defpoints
370
    13
100
AcDbLine
 10
299.0658981783358
 20
-8.836156247370324
 30
0.0
 11
299.3386404786375
 21
-7.818268125272425
 31
0.0
  0
LINE
  5
79C4
102
{ACAD_REACTORS
330
795B
102
}
330
1B
100
AcDbEntity
 67
     1
  8
Defpoints
370
    13
100
AcDbLine
 10
300.4988758370699
 20
-5.131788945778964
 30
0.0
 11
299.5062936101398
 21
-8.836156247370324
 31
0.0
  0
LINE
  5
79C5
102
{ACAD_REACTORS
330
795B
102
}
330
1B
100
AcDbEntity
 67
     1
  8
Defpoints
370
    13
100
AcDbLine
 10
295.2705582365858
 20
-8.836156247370324
 30
0.0
 11
299.0658981783358
 21
-8.836156247370324
 31
0.0
  0
LINE
  5
79C6
102
{ACAD_REACTORS
330
795B
102
}
330
1B
100
AcDbEntity
 67
     1
  8
Defpoints
370
    13
100
AcDbLine
 10
295.7847798367554
 20
-5.131788945778964
 30
0.0
 11
294.4694086971976
 21
-5.131788945778964
 31
0.0
  0
LINE
  5
79C7
102
{ACAD_REACTORS
330
795B
102
}
330
1B
100
AcDbEntity
 67
     1
  8
Defpoints
370
    13
100
AcDbLine
 10
299.7853932319171
 20
-6.150964151611248
 30
0.0
 11
297.2823391645128
 21
-6.150964151611248
 31
0.0
  0
LINE
  5
79C8
102
{ACAD_REACTORS
330
795B
102
}
330
1B
100
AcDbEntity
 67
     1
  8
Defpoints
370
    13
100
AcDbLine
 10
299.7853932319171
 20
-6.150964151611248
 30
0.0
 11
300.0584804052658
 21
-5.131788945778964
 31
0.0
  0
LINE
  5
79C9
102
{ACAD_REACTORS
330
795B
102
}
330
1B
100
AcDbEntity
 67
     1
  8
Defpoints
370
    13
100
AcDbLine
 10
300.0584804052658
 20
-5.131788945778964
 30
0.0
 11
296.2631404635155
 21
-5.131788945778964
 31
0.0
  0
LINE
  5
79CA
102
{ACAD_REACTORS
330
795B
102
}
330
1B
100
AcDbEntity
 67
     1
  8
Defpoints
370
    13
100
AcDbLine
 10
296.8458623785997
 20
-7.818268125272425
 30
0.0
 11
299.3489164460037
 21
-7.818268125272425
 31
0.0
  0
LINE
  5
79CB
102
{ACAD_REACTORS
330
795B
102
}
330
1B
100
AcDbEntity
 67
     1
  8
Defpoints
370
    13
100
AcDbLine
 10
296.9701740022194
 20
-7.354330829952203
 30
0.0
 11
296.8458623785997
 21
-7.818268125272425
 31
0.0
  0
LINE
  5
79CC
102
{ACAD_REACTORS
330
795B
102
}
330
1B
100
AcDbEntity
 67
     1
  8
Defpoints
370
    13
100
AcDbLine
 10
296.9701740022194
 20
-7.354330829952203
 30
0.0
 11
299.4629521022572
 21
-7.354330829952203
 31
0.0
  0
LINE
  5
79CD
102
{ACAD_REACTORS
330
795B
102
}
330
1B
100
AcDbEntity
 67
     1
  8
Defpoints
370
    13
100
AcDbLine
 10
299.4629521022572
 20
-7.354330829952203
 30
0.0
 11
299.6613461571678
 21
-6.613914137106903
 31
0.0
  0
LINE
  5
79CE
102
{ACAD_REACTORS
330
795B
102
}
330
1B
100
AcDbEntity
 67
     1
  8
Defpoints
370
    13
100
AcDbLine
 10
299.6613461571678
 20
-6.613914137106903
 30
0.0
 11
297.16856805713
 21
-6.613914137106903
 31
0.0
  0
LINE
  5
79CF
102
{ACAD_REACTORS
330
795B
102
}
330
1B
100
AcDbEntity
 67
     1
  8
Defpoints
370
    13
100
AcDbLine
 10
297.2926151318793
 20
-6.150964151611248
 30
0.0
 11
297.16856805713
 21
-6.613914137106903
 31
0.0
  0
LINE
  5
79D0
102
{ACAD_REACTORS
330
795B
102
}
330
1B
100
AcDbEntity
 67
     1
  8
Defpoints
370
    13
100
AcDbLine
 10
301.5283505054335
 20
-6.150964151611248
 30
0.0
 11
301.4043034306839
 21
-6.613914137106903
 31
0.0
  0
LINE
  5
79D1
102
{ACAD_REACTORS
330
795B
102
}
330
1B
100
AcDbEntity
 67
     1
  8
Defpoints
370
    13
100
AcDbLine
 10
301.2059093757733
 20
-7.354330829952203
 30
0.0
 11
301.0815977521538
 21
-7.818268125272425
 31
0.0
  0
LINE
  5
79D2
330
1B
100
AcDbEntity
 67
     1
  8
Defpoints
100
AcDbLine
 10
301.2059093757733
 20
-7.354330829952203
 30
0.0
 11
301.0918737195204
 21
-7.779917692964204
 31
0.0
  0
LINE
  5
79D3
330
1B
100
AcDbEntity
 67
     1
  8
Defpoints
100
AcDbLine
 10
296.9701740022194
 20
-7.354330829952203
 30
0.0
 11
296.8561383459659
 21
-7.779917692964204
 31
0.0
  0
LINE
  5
79D4
102
{ACAD_REACTORS
330
7962
102
}
330
1B
100
AcDbEntity
 67
     1
  8
RAHMEN025
370
     9
100
AcDbLine
 10
294.9906277263813
 20
-4.464850458231509
 30
0.0
 11
294.8033006836709
 21
-0.7585472884313162
 31
0.0
  0
LINE
  5
79D5
102
{ACAD_REACTORS
330
7962
102
}
330
1B
100
AcDbEntity
 67
     1
  8
RAHMEN025
370
     9
100
AcDbLine
 10
297.3569117073657
 20
-0.7585472884313162
 30
0.0
 11
295.9227159729942
 21
-0.7585472884313162
 31
0.0
  0
LINE
  5
79D6
102
{ACAD_REACTORS
330
7962
102
}
330
1B
100
AcDbEntity
 67
     1
  8
RAHMEN025
370
     9
100
AcDbLine
 10
295.9227159729942
 20
-0.7585472884313162
 30
0.0
 11
295.2700636148585
 21
-3.194279048674303
 31
0.0
  0
ARC
  5
79D7
102
{ACAD_REACTORS
330
7962
102
}
330
1B
100
AcDbEntity
 67
     1
  8
RAHMEN025
370
     9
100
AcDbCircle
 10
296.1961554402562
 20
-3.442424605406699
 30
0.0
 40
0.9587608077068694
100
AcDbArc
 50
164.9999999999992
 51
261.6882763531173
  0
ARC
  5
79D8
102
{ACAD_REACTORS
330
7962
102
}
330
1B
100
AcDbEntity
 67
     1
  8
RAHMEN025
370
     9
100
AcDbCircle
 10
297.0867080155721
 20
2.653359274662051
 30
0.0
 40
7.119253077153191
100
AcDbArc
 50
261.6882763531173
 51
278.5178280220953
  0
ARC
  5
79D9
102
{ACAD_REACTORS
330
7962
102
}
330
1B
100
AcDbEntity
 67
     1
  8
RAHMEN025
370
     9
100
AcDbCircle
 10
297.987821822269
 20
-3.363326836883146
 30
0.0
 40
1.035461672323419
100
AcDbArc
 50
278.5178280220953
 51
344.9999999999992
  0
LINE
  5
79DA
102
{ACAD_REACTORS
330
7962
102
}
330
1B
100
AcDbEntity
 67
     1
  8
RAHMEN025
370
     9
100
AcDbLine
 10
298.9880009936989
 20
-3.631324038154033
 30
0.0
 11
299.7577592038217
 21
-0.7585472884313162
 31
0.0
  0
LINE
  5
79DB
102
{ACAD_REACTORS
330
7962
102
}
330
1B
100
AcDbEntity
 67
     1
  8
RAHMEN025
370
     9
100
AcDbLine
 10
299.7577592038217
 20
-0.7585472884313162
 30
0.0
 11
298.2927428046662
 21
-0.7585472884313162
 31
0.0
  0
LINE
  5
79DC
102
{ACAD_REACTORS
330
7962
102
}
330
1B
100
AcDbEntity
 67
     1
  8
RAHMEN025
370
     9
100
AcDbLine
 10
297.5614189444255
 20
-3.487885091636783
 30
0.0
 11
298.2927428046662
 21
-0.7585472884313162
 31
0.0
  0
ARC
  5
79DD
102
{ACAD_REACTORS
330
7962
102
}
330
1B
100
AcDbEntity
 67
     1
  8
RAHMEN025
370
     9
100
AcDbCircle
 10
297.2280258872821
 20
-3.398552691213012
 30
0.0
 40
0.3451538907744731
100
AcDbArc
 50
270.0
 51
344.9999999999992
  0
LINE
  5
79DE
102
{ACAD_REACTORS
330
7962
102
}
330
1B
100
AcDbEntity
 67
     1
  8
RAHMEN025
370
     9
100
AcDbLine
 10
297.2280258872821
 20
-3.743706581987368
 30
0.0
 11
297.0068539933715
 21
-3.743706581987368
 31
0.0
  0
ARC
  5
79DF
102
{ACAD_REACTORS
330
7962
102
}
330
1B
100
AcDbEntity
 67
     1
  8
RAHMEN025
370
     9
100
AcDbCircle
 10
297.0068539933715
 20
-3.398552691213012
 30
0.0
 40
0.3451538907744731
100
AcDbArc
 50
164.9999999999992
 51
270.0
  0
LINE
  5
79E0
102
{ACAD_REACTORS
330
7962
102
}
330
1B
100
AcDbEntity
 67
     1
  8
RAHMEN025
370
     9
100
AcDbLine
 10
297.3569117073657
 20
-0.7585472884313162
 30
0.0
 11
296.673460936228
 21
-3.309220290789312
 31
0.0
  0
LINE
  5
79E1
102
{ACAD_REACTORS
330
7962
102
}
330
1B
100
AcDbEntity
 67
     1
  8
RAHMEN025
370
     9
100
AcDbLine
 10
301.3699522400016
 20
-1.777722494263542
 30
0.0
 11
301.2459051652525
 21
-2.24067247975924
 31
0.0
  0
LINE
  5
79E2
102
{ACAD_REACTORS
330
7962
102
}
330
1B
100
AcDbEntity
 67
     1
  8
RAHMEN025
370
     9
100
AcDbLine
 10
300.340477571638
 20
-0.7585472884313162
 30
0.0
 11
299.3478953447084
 21
-4.462914590022734
 31
0.0
  0
LINE
  5
79E3
102
{ACAD_REACTORS
330
7962
102
}
330
1B
100
AcDbEntity
 67
     1
  8
RAHMEN025
370
     9
100
AcDbLine
 10
301.0475111103419
 20
-2.981089172604271
 30
0.0
 11
300.9231994867221
 21
-3.445026467924719
 31
0.0
  0
LINE
  5
79E4
330
1B
100
AcDbEntity
 67
     1
  8
RAHMEN025
370
     9
100
AcDbLine
 10
301.0475111103419
 20
-2.981089172604271
 30
0.0
 11
300.9334754540886
 21
-3.40667603561647
 31
0.0
  0
LINE
  5
79E5
102
{ACAD_REACTORS
330
795B
102
}
330
1B
100
AcDbEntity
 67
     1
  8
Defpoints
370
    13
100
AcDbLine
 10
293.999919046098
 20
-6.883948177310145
 30
0.0
 11
294.4694086971976
 21
-5.131788945778964
 31
0.0
  0
LINE
  5
79E6
102
{ACAD_REACTORS
330
7962
102
}
330
1B
100
AcDbEntity
 67
     1
  8
RAHMEN025
370
     9
100
AcDbLine
 10
293.686664136977
 20
-4.462914590022734
 30
0.0
 11
294.9905298821278
 21
-4.462914590022734
 31
0.0
  0
TEXT
  5
79E7
330
1B
100
AcDbEntity
 67
     1
  8
RAHMEN025
 48
1.5
100
AcDbText
 10
277.9593079271807
 20
24.24890797303385
 30
0.0
 40
2.5
  1
DIN ISO 2768-m
 41
0.65
  7
Stil1
100
AcDbText
  0
TEXT
  5
79E8
330
1B
100
AcDbEntity
 67
     1
  8
RAHMEN025
100
AcDbText
 10
276.2078121030635
 20
13.7416923086296
 30
0.0
 40
2.5
  1
Bearb.
  7
ISO Proportional
100
AcDbText
  0
TEXT
  5
79E9
330
1B
100
AcDbEntity
 67
     1
  8
RAHMEN025
100
AcDbText
 10
289.9367893940968
 20
17.9916923086296
 30
0.0
 40
2.5
  1
Datum
  7
ISO Proportional
100
AcDbText
  0
TEXT
  5
79EA
330
1B
100
AcDbEntity
 67
     1
  8
RAHMEN025
 48
1.5
100
AcDbText
 10
287.0692579920692
 20
13.65356980389427
 30
0.0
 40
2.5
  1
10.10.2006
 41
0.65
  7
Stil1
100
AcDbText
  0
LINE
  5
79EB
102
{ACAD_REACTORS
330
795B
102
}
330
1B
100
AcDbEntity
 67
     1
  8
Defpoints
370
    13
100
AcDbLine
 10
318.3939938836069
 20
-8.836156247370324
 30
0.0
 11
316.5671120863186
 21
-8.836156247370324
 31
0.0
  0
LINE
  5
79EC
102
{ACAD_REACTORS
330
795B
102
}
330
1B
100
AcDbEntity
 67
     1
  8
Defpoints
370
    13
100
AcDbLine
 10
317.3348590145918
 20
-6.949278718856078
 30
0.0
 11
318.8995811935887
 21
-6.949278718856078
 31
0.0
  0
ARC
  5
79ED
102
{ACAD_REACTORS
330
795B
102
}
330
1B
100
AcDbEntity
 67
     1
  8
Defpoints
370
    13
100
AcDbCircle
 10
317.6215454384451
 20
-14.94036965154641
 30
0.0
 40
8.85764661435673
100
AcDbArc
 50
80.0265067162775
 51
93.02614479233048
  0
ARC
  5
79EE
102
{ACAD_REACTORS
330
795B
102
}
330
1B
100
AcDbEntity
 67
     1
  8
Defpoints
370
    13
100
AcDbCircle
 10
317.7860979528907
 20
-19.59888503057878
 30
0.0
 40
14.46807838019826
100
AcDbArc
 50
83.51735091136804
 51
95.92334440423654
  0
LINE
  5
79EF
102
{ACAD_REACTORS
330
795B
102
}
330
1B
100
AcDbEntity
 67
     1
  8
Defpoints
370
    13
100
AcDbLine
 10
311.0599921871173
 20
-5.131788945778964
 30
0.0
 11
310.0674099601878
 21
-8.836156247370324
 31
0.0
  0
LINE
  5
79F0
102
{ACAD_REACTORS
330
795B
102
}
330
1B
100
AcDbEntity
 67
     1
  8
Defpoints
370
    13
100
AcDbLine
 10
311.0599921871173
 20
-5.131788945778964
 30
0.0
 11
309.7177270563278
 21
-5.131788945778964
 31
0.0
  0
LINE
  5
79F1
102
{ACAD_REACTORS
330
795B
102
}
330
1B
100
AcDbEntity
 67
     1
  8
Defpoints
370
    13
100
AcDbLine
 10
303.3016335518903
 20
-8.836156247370324
 30
0.0
 11
303.5743758521916
 21
-7.818268125272425
 31
0.0
  0
LINE
  5
79F2
102
{ACAD_REACTORS
330
795B
102
}
330
1B
100
AcDbEntity
 67
     1
  8
Defpoints
370
    13
100
AcDbLine
 10
304.8085326856575
 20
-5.121863123509811
 30
0.0
 11
303.8132908426666
 21
-8.836156247370324
 31
0.0
  0
LINE
  5
79F3
102
{ACAD_REACTORS
330
795B
102
}
330
1B
100
AcDbEntity
 67
     1
  8
Defpoints
370
    13
100
AcDbLine
 10
305.5428032341442
 20
-7.242755103328263
 30
0.0
 11
305.1185123004403
 21
-8.826230425101002
 31
0.0
  0
LINE
  5
79F4
102
{ACAD_REACTORS
330
795B
102
}
330
1B
100
AcDbEntity
 67
     1
  8
Defpoints
370
    13
100
AcDbLine
 10
305.5428032341442
 20
-7.242755103328263
 30
0.0
 11
306.5463315294167
 21
-8.826230425101002
 31
0.0
  0
LINE
  5
79F5
102
{ACAD_REACTORS
330
795B
102
}
330
1B
100
AcDbEntity
 67
     1
  8
Defpoints
370
    13
100
AcDbLine
 10
307.2518077210494
 20
-7.242755103328263
 30
0.0
 11
308.255336016322
 21
-8.826230425101002
 31
0.0
  0
LINE
  5
79F6
102
{ACAD_REACTORS
330
795B
102
}
330
1B
100
AcDbEntity
 67
     1
  8
Defpoints
370
    13
100
AcDbLine
 10
309.7177270563278
 20
-5.131788945778964
 30
0.0
 11
308.7251448293983
 21
-8.836156247370324
 31
0.0
  0
LINE
  5
79F7
102
{ACAD_REACTORS
330
795B
102
}
330
1B
100
AcDbEntity
 67
     1
  8
Defpoints
370
    13
100
AcDbLine
 10
303.8159504587279
 20
-8.826230425101002
 30
0.0
 11
305.1185123004403
 21
-8.826230425101002
 31
0.0
  0
LINE
  5
79F8
102
{ACAD_REACTORS
330
795B
102
}
330
1B
100
AcDbEntity
 67
     1
  8
Defpoints
370
    13
100
AcDbLine
 10
306.5463315294167
 20
-8.826230425101002
 30
0.0
 11
308.255336016322
 21
-8.826230425101002
 31
0.0
  0
LINE
  5
79F9
102
{ACAD_REACTORS
330
795B
102
}
330
1B
100
AcDbEntity
 67
     1
  8
Defpoints
370
    13
100
AcDbLine
 10
308.7251448293983
 20
-8.836156247370324
 30
0.0
 11
310.0674099601878
 21
-8.836156247370324
 31
0.0
  0
LINE
  5
79FA
102
{ACAD_REACTORS
330
795B
102
}
330
1B
100
AcDbEntity
 67
     1
  8
Defpoints
370
    13
100
AcDbLine
 10
304.0211286054714
 20
-6.150964151611248
 30
0.0
 11
304.2942157788199
 21
-5.131788945778964
 31
0.0
  0
LINE
  5
79FB
102
{ACAD_REACTORS
330
795B
102
}
330
1B
100
AcDbEntity
 67
     1
  8
Defpoints
370
    13
100
AcDbLine
 10
303.6986874758111
 20
-7.354330829952203
 30
0.0
 11
303.8970815307219
 21
-6.613914137106903
 31
0.0
  0
LINE
  5
79FC
102
{ACAD_REACTORS
330
795B
102
}
330
1B
100
AcDbEntity
 67
     1
  8
Defpoints
370
    13
100
AcDbLine
 10
308.8471866787382
 20
-6.617413682470839
 30
0.0
 11
308.9633354078431
 21
-6.183940724216228
 31
0.0
  0
ARC
  5
79FD
102
{ACAD_REACTORS
330
795B
102
}
330
1B
100
AcDbEntity
 67
     1
  8
Defpoints
370
    13
100
AcDbCircle
 10
308.1483746014932
 20
-5.965572634291774
 30
0.0
 40
0.8437095107820451
100
AcDbArc
 50
344.9999529879285
 51
90.0
  0
LINE
  5
79FE
102
{ACAD_REACTORS
330
795B
102
}
330
1B
100
AcDbEntity
 67
     1
  8
Defpoints
370
    13
100
AcDbLine
 10
308.1483746014932
 20
-5.121863123509811
 30
0.0
 11
304.8085326856575
 21
-5.121863123509811
 31
0.0
  0
LINE
  5
79FF
102
{ACAD_REACTORS
330
795B
102
}
330
1B
100
AcDbEntity
 67
     1
  8
Defpoints
370
    13
100
AcDbLine
 10
308.0322258723879
 20
-7.242755103328263
 30
0.0
 11
307.2518077210494
 21
-7.242755103328263
 31
0.0
  0
ARC
  5
7A00
102
{ACAD_REACTORS
330
795B
102
}
330
1B
100
AcDbEntity
 67
     1
  8
Defpoints
370
    13
100
AcDbCircle
 10
308.0322258723879
 20
-6.399045592546187
 30
0.0
 40
0.8437095107820451
100
AcDbArc
 50
270.0
 51
345.0438139040562
  0
LINE
  5
7A01
102
{ACAD_REACTORS
330
795B
102
}
330
1B
100
AcDbEntity
 67
     1
  8
Defpoints
370
    13
100
AcDbLine
 10
306.9909583959121
 20
-5.998443476857801
 30
0.0
 11
305.8762155295893
 21
-5.998443476857801
 31
0.0
  0
ARC
  5
7A02
102
{ACAD_REACTORS
330
795B
102
}
330
1B
100
AcDbEntity
 67
     1
  8
Defpoints
370
    13
100
AcDbCircle
 10
306.9922752924276
 20
-6.384775643805028
 30
0.0
 40
0.386334411403646
100
AcDbArc
 50
350.9662004601523
 51
90.1953042656462
  0
ARC
  5
7A03
102
{ACAD_REACTORS
330
795B
102
}
330
1B
100
AcDbEntity
 67
     1
  8
Defpoints
370
    13
100
AcDbCircle
 10
306.832291676657
 20
-6.359339975360313
 30
0.0
 40
0.5483274067590241
100
AcDbArc
 50
296.5093598874432
 51
350.9662004601523
  0
ARC
  5
7A04
102
{ACAD_REACTORS
330
795B
102
}
330
1B
100
AcDbEntity
 67
     1
  8
Defpoints
370
    13
100
AcDbCircle
 10
306.7978480497945
 20
-6.134324340629319
 30
0.0
 40
0.7682193793950698
100
AcDbArc
 50
270.1852188608381
 51
291.3103783431897
  0
LINE
  5
7A05
102
{ACAD_REACTORS
330
795B
102
}
330
1B
100
AcDbEntity
 67
     1
  8
Defpoints
370
    13
100
AcDbLine
 10
306.8003314492802
 20
-6.902539705999657
 30
0.0
 11
305.6339636751107
 21
-6.902539705999657
 31
0.0
  0
LINE
  5
7A06
102
{ACAD_REACTORS
330
795B
102
}
330
1B
100
AcDbEntity
 67
     1
  8
Defpoints
370
    13
100
AcDbLine
 10
305.6339636751107
 20
-6.902539705999657
 30
0.0
 11
305.8762155295893
 21
-5.998443476857801
 31
0.0
  0
LINE
  5
7A07
102
{ACAD_REACTORS
330
7962
102
}
330
1B
100
AcDbEntity
 67
     1
  8
RAHMEN025
370
     9
100
AcDbLine
 10
303.8627303400394
 20
-1.777722494263542
 30
0.0
 11
304.1358175133884
 21
-0.7585472884313162
 31
0.0
  0
LINE
  5
7A08
102
{ACAD_REACTORS
330
7962
102
}
330
1B
100
AcDbEntity
 67
     1
  8
RAHMEN025
370
     9
100
AcDbLine
 10
303.1432352864583
 20
-4.462914590022734
 30
0.0
 11
303.41597758676
 21
-3.445026467924719
 31
0.0
  0
LINE
  5
7A09
102
{ACAD_REACTORS
330
7962
102
}
330
1B
100
AcDbEntity
 67
     1
  8
RAHMEN025
370
     9
100
AcDbLine
 10
303.5402892103799
 20
-2.981089172604271
 30
0.0
 11
303.7386832652903
 21
-2.24067247975924
 31
0.0
  0
LINE
  5
7A0A
102
{ACAD_REACTORS
330
7962
102
}
330
1B
100
AcDbEntity
 67
     1
  8
RAHMEN025
370
     9
100
AcDbLine
 10
308.0112723257115
 20
-0.7585472884313162
 30
0.0
 11
304.6714304098756
 21
-0.7585472884313162
 31
0.0
  0
LINE
  5
7A0B
102
{ACAD_REACTORS
330
7962
102
}
330
1B
100
AcDbEntity
 67
     1
  8
RAHMEN025
370
     9
100
AcDbLine
 10
304.6714304098756
 20
-0.7585472884313162
 30
0.0
 11
303.6788481829462
 21
-4.462914590022734
 31
0.0
  0
LINE
  5
7A0C
102
{ACAD_REACTORS
330
7962
102
}
330
1B
100
AcDbEntity
 67
     1
  8
RAHMEN025
370
     9
100
AcDbLine
 10
303.6788481829462
 20
-4.462914590022734
 30
0.0
 11
304.9814100246587
 21
-4.462914590022734
 31
0.0
  0
LINE
  5
7A0D
102
{ACAD_REACTORS
330
7962
102
}
330
1B
100
AcDbEntity
 67
     1
  8
RAHMEN025
370
     9
100
AcDbLine
 10
305.4057009583623
 20
-2.87943926824974
 30
0.0
 11
304.9814100246587
 21
-4.462914590022734
 31
0.0
  0
LINE
  5
7A0E
102
{ACAD_REACTORS
330
7962
102
}
330
1B
100
AcDbEntity
 67
     1
  8
RAHMEN025
370
     9
100
AcDbLine
 10
305.4057009583623
 20
-2.87943926824974
 30
0.0
 11
306.4092292536348
 21
-4.462914590022734
 31
0.0
  0
LINE
  5
7A0F
102
{ACAD_REACTORS
330
7962
102
}
330
1B
100
AcDbEntity
 67
     1
  8
RAHMEN025
370
     9
100
AcDbLine
 10
306.4092292536348
 20
-4.462914590022734
 30
0.0
 11
308.1182337405404
 21
-4.462914590022734
 31
0.0
  0
LINE
  5
7A10
102
{ACAD_REACTORS
330
7962
102
}
330
1B
100
AcDbEntity
 67
     1
  8
RAHMEN025
370
     9
100
AcDbLine
 10
307.1147054452675
 20
-2.87943926824974
 30
0.0
 11
308.1182337405404
 21
-4.462914590022734
 31
0.0
  0
LINE
  5
7A11
102
{ACAD_REACTORS
330
7962
102
}
330
1B
100
AcDbEntity
 67
     1
  8
RAHMEN025
370
     9
100
AcDbLine
 10
307.8951235966063
 20
-2.87943926824974
 30
0.0
 11
307.1147054452675
 21
-2.87943926824974
 31
0.0
  0
ARC
  5
7A12
102
{ACAD_REACTORS
330
7962
102
}
330
1B
100
AcDbEntity
 67
     1
  8
RAHMEN025
370
     9
100
AcDbCircle
 10
307.8951235966063
 20
-2.035729757467777
 30
0.0
 40
0.8437095107820451
100
AcDbArc
 50
270.0
 51
345.0438139040562
  0
LINE
  5
7A13
102
{ACAD_REACTORS
330
7962
102
}
330
1B
100
AcDbEntity
 67
     1
  8
RAHMEN025
370
     9
100
AcDbLine
 10
308.7100844029565
 20
-2.254097847392301
 30
0.0
 11
308.8262331320612
 21
-1.820624889137917
 31
0.0
  0
LINE
  5
7A14
102
{ACAD_REACTORS
330
7962
102
}
330
1B
100
AcDbEntity
 67
     1
  8
RAHMEN025
370
     9
100
AcDbLine
 10
306.8538561201303
 20
-1.635127641779263
 30
0.0
 11
305.739113253808
 21
-1.635127641779263
 31
0.0
  0
ARC
  5
7A15
102
{ACAD_REACTORS
330
7962
102
}
330
1B
100
AcDbEntity
 67
     1
  8
RAHMEN025
370
     9
100
AcDbCircle
 10
306.8551730166457
 20
-2.021459808726774
 30
0.0
 40
0.386334411403646
100
AcDbArc
 50
350.9662004601523
 51
90.1953042656462
  0
ARC
  5
7A16
102
{ACAD_REACTORS
330
7962
102
}
330
1B
100
AcDbEntity
 67
     1
  8
RAHMEN025
370
     9
100
AcDbCircle
 10
306.6951894008754
 20
-1.996024140281974
 30
0.0
 40
0.5483274067590241
100
AcDbArc
 50
296.5093598874432
 51
350.9662004601523
  0
ARC
  5
7A17
102
{ACAD_REACTORS
330
7962
102
}
330
1B
100
AcDbEntity
 67
     1
  8
RAHMEN025
370
     9
100
AcDbCircle
 10
306.6607457740126
 20
-1.77100850555081
 30
0.0
 40
0.7682193793950698
100
AcDbArc
 50
270.1852188608381
 51
291.3103783431897
  0
LINE
  5
7A18
102
{ACAD_REACTORS
330
7962
102
}
330
1B
100
AcDbEntity
 67
     1
  8
RAHMEN025
370
     9
100
AcDbLine
 10
306.6632291734985
 20
-2.539223870921333
 30
0.0
 11
305.496861399329
 21
-2.539223870921333
 31
0.0
  0
LINE
  5
7A19
102
{ACAD_REACTORS
330
7962
102
}
330
1B
100
AcDbEntity
 67
     1
  8
RAHMEN025
370
     9
100
AcDbLine
 10
305.496861399329
 20
-2.539223870921333
 30
0.0
 11
305.739113253808
 21
-1.635127641779263
 31
0.0
  0
ARC
  5
7A1A
102
{ACAD_REACTORS
330
7962
102
}
330
1B
100
AcDbEntity
 67
     1
  8
RAHMEN025
370
     9
100
AcDbCircle
 10
308.0112723257115
 20
-1.602256799213506
 30
0.0
 40
0.8437095107820451
100
AcDbArc
 50
344.9999529879285
 51
90.0
  0
LINE
  5
7A1B
102
{ACAD_REACTORS
330
795B
102
}
330
1B
100
AcDbEntity
 67
     1
  8
Defpoints
370
    13
100
AcDbLine
 10
312.3037431332026
 20
-7.075021011529145
 30
0.0
 11
311.831848368997
 21
-8.836156247370324
 31
0.0
  0
LINE
  5
7A1C
102
{ACAD_REACTORS
330
795B
102
}
330
1B
100
AcDbEntity
 67
     1
  8
Defpoints
370
    13
100
AcDbLine
 10
313.0108784396519
 20
-8.836156247370324
 30
0.0
 11
312.3037431332026
 21
-7.075021011529145
 31
0.0
  0
LINE
  5
7A1D
102
{ACAD_REACTORS
330
795B
102
}
330
1B
100
AcDbEntity
 67
     1
  8
Defpoints
370
    13
100
AcDbLine
 10
314.2849231799577
 20
-8.836156247370324
 30
0.0
 11
315.2775054068873
 21
-5.131788945778964
 31
0.0
  0
ARC
  5
7A1E
102
{ACAD_REACTORS
330
795B
102
}
330
1B
100
AcDbEntity
 67
     1
  8
Defpoints
370
    13
100
AcDbCircle
 10
315.9224420673735
 20
-7.82136828170168
 30
0.0
 40
0.9587608077068694
100
AcDbArc
 50
171.0200151799534
 51
262.0635437036931
  0
LINE
  5
7A1F
102
{ACAD_REACTORS
330
795B
102
}
330
1B
100
AcDbEntity
 67
     1
  8
Defpoints
370
    13
100
AcDbLine
 10
313.0108784396519
 20
-8.836156247370324
 30
0.0
 11
314.2849231799577
 21
-8.836156247370324
 31
0.0
  0
ARC
  5
7A20
102
{ACAD_REACTORS
330
795B
102
}
330
1B
100
AcDbEntity
 67
     1
  8
Defpoints
370
    13
100
AcDbCircle
 10
316.7730505707492
 20
-1.719882382685653
 30
0.0
 40
7.119253077153191
100
AcDbArc
 50
262.0635437036931
 51
268.3423749580197
  0
ARC
  5
7A21
330
1B
100
AcDbEntity
 67
     1
  8
Defpoints
100
AcDbCircle
 10
317.5686998807454
 20
-7.685643278122114
 30
0.0
 40
1.150512969248243
100
AcDbArc
 50
270.0
 51
270.0
  0
LINE
  5
7A22
102
{ACAD_REACTORS
330
795B
102
}
330
1B
100
AcDbEntity
 67
     1
  8
Defpoints
370
    13
100
AcDbLine
 10
312.7830546014807
 20
-5.131788945778964
 30
0.0
 11
311.5218687542145
 21
-5.131788945778964
 31
0.0
  0
LINE
  5
7A23
102
{ACAD_REACTORS
330
795B
102
}
330
1B
100
AcDbEntity
 67
     1
  8
Defpoints
370
    13
100
AcDbLine
 10
315.2775054068873
 20
-5.131788945778964
 30
0.0
 11
313.962134267329
 21
-5.131788945778964
 31
0.0
  0
LINE
  5
7A24
102
{ACAD_REACTORS
330
795B
102
}
330
1B
100
AcDbEntity
 67
     1
  8
Defpoints
370
    13
100
AcDbLine
 10
313.4926446162295
 20
-6.883948177310145
 30
0.0
 11
313.962134267329
 21
-5.131788945778964
 31
0.0
  0
LINE
  5
7A25
102
{ACAD_REACTORS
330
795B
102
}
330
1B
100
AcDbEntity
 67
     1
  8
Defpoints
370
    13
100
AcDbLine
 10
312.7830546014807
 20
-5.131788945778964
 30
0.0
 11
313.4926446162295
 21
-6.883948177310145
 31
0.0
  0
ARC
  5
7A26
102
{ACAD_REACTORS
330
795B
102
}
330
1B
100
AcDbEntity
 67
     1
  8
Defpoints
370
    13
100
AcDbCircle
 10
317.1782307494628
 20
-6.554638043590301
 30
0.0
 40
0.4602051876992975
100
AcDbArc
 50
93.02614479233048
 51
158.0969939507942
  0
ARC
  5
7A27
102
{ACAD_REACTORS
330
795B
102
}
330
1B
100
AcDbEntity
 67
     1
  8
Defpoints
370
    13
100
AcDbCircle
 10
316.3919660094873
 20
-6.161695689098081
 30
0.0
 40
0.9587608077068694
100
AcDbArc
 50
95.92334440423654
 51
157.3874044007997
  0
ARC
  5
7A28
102
{ACAD_REACTORS
330
795B
102
}
330
1B
100
AcDbEntity
 67
     1
  8
Defpoints
370
    13
100
AcDbCircle
 10
323.0996154872928
 20
-8.955550916464773
 30
0.0
 40
8.224997010073714
100
AcDbArc
 50
157.3874044007955
 51
171.0200151799534
  0
ARC
  5
7A29
102
{ACAD_REACTORS
330
795B
102
}
330
1B
100
AcDbEntity
 67
     1
  8
Defpoints
370
    13
100
AcDbCircle
 10
315.9416139192616
 20
-7.238156678173965
 30
0.0
 40
1.422878199650913
100
AcDbArc
 50
334.2263645027383
 51
11.71383119333059
  0
ARC
  5
7A2A
102
{ACAD_REACTORS
330
795B
102
}
330
1B
100
AcDbEntity
 67
     1
  8
Defpoints
370
    13
100
AcDbCircle
 10
316.8085192058368
 20
-7.6567430516358
 30
0.0
 40
0.4602051876992975
100
AcDbArc
 50
270.0
 51
334.2263645027491
  0
LINE
  5
7A2B
102
{ACAD_REACTORS
330
795B
102
}
330
1B
100
AcDbEntity
 67
     1
  8
Defpoints
370
    13
100
AcDbLine
 10
316.7668289840011
 20
-8.116948239335287
 30
0.0
 11
316.8085192058368
 21
-8.116948239335287
 31
0.0
  0
ARC
  5
7A2C
102
{ACAD_REACTORS
330
795B
102
}
330
1B
100
AcDbEntity
 67
     1
  8
Defpoints
370
    13
100
AcDbCircle
 10
316.7668289840011
 20
-7.733443916252525
 30
0.0
 40
0.3835043230827479
100
AcDbArc
 50
171.2985646492635
 51
270.0
  0
ARC
  5
7A2D
102
{ACAD_REACTORS
330
795B
102
}
330
1B
100
AcDbEntity
 67
     1
  8
Defpoints
370
    13
100
AcDbCircle
 10
322.5236496895644
 20
-8.703808457679429
 30
0.0
 40
6.22149298766157
100
AcDbArc
 50
158.0969939507942
 51
170.4856136403678
  0
LINE
  5
7A2E
102
{ACAD_REACTORS
330
795B
102
}
330
1B
100
AcDbEntity
 67
     1
  8
Defpoints
370
    13
100
AcDbLine
 10
311.5218687542145
 20
-5.131788945778964
 30
0.0
 11
310.5292865272844
 21
-8.836156247370324
 31
0.0
  0
LINE
  5
7A2F
102
{ACAD_REACTORS
330
795B
102
}
330
1B
100
AcDbEntity
 67
     1
  8
Defpoints
370
    13
100
AcDbLine
 10
310.5292865272844
 20
-8.836156247370324
 30
0.0
 11
311.831848368997
 21
-8.836156247370324
 31
0.0
  0
LINE
  5
7A30
102
{ACAD_REACTORS
330
795B
102
}
330
1B
100
AcDbEntity
 67
     1
  8
Defpoints
370
    13
100
AcDbLine
 10
319.1556239135247
 20
-6.216579948835729
 30
0.0
 11
319.4195776357884
 21
-5.223314219612035
 31
0.0
  0
LINE
  5
7A31
102
{ACAD_REACTORS
330
795B
102
}
330
1B
100
AcDbEntity
 67
     1
  8
Defpoints
370
    13
100
AcDbLine
 10
318.3939938836069
 20
-8.836156247370324
 30
0.0
 11
318.8995811935887
 21
-6.949278718856078
 31
0.0
  0
TEXT
  5
7A32
330
1B
100
AcDbEntity
 67
     1
  8
RAHMEN025
100
AcDbText
 10
306.4822006905678
 20
17.9916923086296
 30
0.0
 40
2.5
  1
Name
  7
ISO Proportional
100
AcDbText
  0
TEXT
  5
7A33
330
1B
100
AcDbEntity
 67
     1
  8
RAHMEN025
 48
1.5
100
AcDbText
 10
303.595154936857
 20
13.65356980389427
 30
0.0
 40
2.5
  1
Hornung
 41
0.8
  7
Stil1
100
AcDbText
  0
TEXT
  5
7A34
330
1B
100
AcDbEntity
 67
     1
  8
RAHMEN025
 48
1.5
100
AcDbText
 10
388.7313263662636
 20
33.91245395124329
 30
0.0
 40
2.5
  1
ca. 34,5 kg
 41
0.8
  7
Stil1
100
AcDbText
  0
TEXT
  5
7A35
330
1B
100
AcDbEntity
 67
     1
  8
RAHMEN025
100
AcDbText
 10
373.0351384416708
 20
33.92919230862961
 30
0.0
 40
2.5
  1
Gewicht:
  7
ISO Proportional
100
AcDbText
  0
TEXT
  5
7A36
330
1B
100
AcDbEntity
 67
     1
  8
RAHMEN025
 48
1.5
100
AcDbText
 10
342.7613002887215
 20
33.91245395124329
 30
0.0
 40
2.5
  1
1:1
 41
0.8
  7
Stil1
100
AcDbText
  0
LINE
  5
7A37
330
1B
100
AcDbEntity
 67
     1
  8
RAHMEN025
100
AcDbLine
 10
371.9088785391793
 20
38.36669230862955
 30
0.0
 11
371.9088785391793
 21
31.99169230862961
 31
0.0
  0
TEXT
  5
7A38
330
1B
100
AcDbEntity
 67
     1
  8
RAHMEN025
100
AcDbText
 10
396.2211380225011
 20
-11.62751685581645
 30
0.0
 40
2.5
  1
Blätter
  7
ISO Proportional
100
AcDbText
  0
LINE
  5
7A39
330
1B
100
AcDbEntity
 67
     1
  8
RAHMEN025
100
AcDbLine
 10
395.3088785391791
 20
-8.38330769137039
 30
0.0
 11
408.3088785391791
 21
-8.38330769137039
 31
0.0
  0
TEXT
  5
7A3A
330
1B
100
AcDbEntity
 67
     1
  8
RAHMEN025
100
AcDbText
 10
396.2173380303017
 20
-3.251113241276669
 30
0.0
 40
2.5
  1
Blatt
  7
ISO Proportional
100
AcDbText
  0
LINE
  5
7A3B
330
1B
100
AcDbEntity
 67
     1
  8
RAHMEN025
100
AcDbLine
 10
395.3088785391792
 20
0.116692308629581
 30
0.0
 11
395.3088785391792
 21
-12.63330769137039
 31
0.0
  0
TEXT
  5
7A3C
330
1B
100
AcDbEntity
 67
     1
  8
RAHMEN025
100
AcDbText
 10
365.7855785831719
 20
-16.00830769137039
 30
0.0
 40
2.5
  1
Ersatz durch:
  7
ISO Proportional
100
AcDbText
  0
LINE
  5
7A3D
330
1B
100
AcDbEntity
 67
     1
  8
RAHMEN025
100
AcDbLine
 10
364.1088785391792
 20
-12.63330769137039
 30
0.0
 11
364.1088785391792
 21
-16.88330769137047
 31
0.0
  0
TEXT
  5
7A3E
330
1B
100
AcDbEntity
 67
     1
  8
RAHMEN05
 48
1.5
100
AcDbText
 10
345.9796562652264
 20
-8.842441041517503
 30
0.0
 40
5.0
  1
514036
 41
0.8
  7
Stil1
100
AcDbText
  0
TEXT
  5
7A3F
330
1B
100
AcDbEntity
 67
     1
  8
RAHMEN05
 48
1.5
100
AcDbText
 10
337.5953137704312
 20
6.957117436674167
 30
0.0
 40
5.0
  1
Rüttler RV 75
 41
0.7
  7
Stil1
100
AcDbText
  0
TEXT
  5
7A40
330
1B
100
AcDbEntity
 67
     1
  8
RAHMEN025
 48
1.5
100
AcDbText
 10
342.7613002887215
 20
25.17579079930411
 30
0.0
 40
3.5
  1
%
 41
0.8
  7
Stil1
100
AcDbText
  0
LINE
  5
7A41
330
1B
100
AcDbEntity
 67
     1
  8
RAHMEN025
100
AcDbLine
 10
413.3088785391791
 20
-21.88330769137039
 30
0.0
 11
413.3088785391791
 21
275.1166923086295
 31
0.0
  0
LINE
  5
7A42
330
1B
100
AcDbEntity
 67
     1
  8
RAHMEN07
100
AcDbLine
 10
408.3088785391791
 20
-16.88330769137039
 30
0.0
 11
408.3088785391791
 21
270.1166923086296
 31
0.0
  0
ENDSEC
  0
SECTION
  2
OBJECTS
  0
DICTIONARY
  5
C
330
0
100
AcDbDictionary
281
     1
  3
ACAD_GROUP
350
D
  3
ACAD_IMAGE_VARS
350
7C8D
  3
ACAD_LAYOUT
350
1A
  3
ACAD_MLINESTYLE
350
17
  3
ACAD_PLOTSETTINGS
350
19
  3
ACAD_PLOTSTYLENAME
350
E
  3
ACAD_SCALELIST
350
7C4B
  3
AcDbVariableDictionary
350
21B8
  3
AcDsDecomposeData
350
7C93
  3
APPDATA
350
7C8B
  3
DWGPROPS
350
7C90
  0
DICTIONARY
  5
2B
330
2
100
AcDbDictionary
280
     1
281
     1
  3
ACAD_LAYERFILTERS
360
2C
  3
ACAD_LAYERSTATES
360
4DB3
  0
DICTIONARY
  5
D
102
{ACAD_REACTORS
330
C
102
}
330
C
100
AcDbDictionary
281
     1
  0
RASTERVARIABLES
  5
7C8D
102
{ACAD_REACTORS
330
C
102
}
330
C
100
AcDbRasterVariables
 90
        0
 70
     1
 71
     1
 72
     1
  0
DICTIONARY
  5
1A
102
{ACAD_REACTORS
330
C
102
}
330
C
100
AcDbDictionary
281
     1
  3
Layout1
350
1E
  3
Model
350
22
  0
DICTIONARY
  5
17
102
{ACAD_REACTORS
330
C
102
}
330
C
100
AcDbDictionary
281
     1
  3
Standard
350
18
  0
DICTIONARY
  5
19
102
{ACAD_REACTORS
330
C
102
}
330
C
100
AcDbDictionary
281
     1
  0
ACDBDICTIONARYWDFLT
  5
E
102
{ACAD_REACTORS
330
C
102
}
330
C
100
AcDbDictionary
281
     1
  3
Normal
350
F
100
AcDbDictionaryWithDefault
340
F
  0
DICTIONARY
  5
7C4B
102
{ACAD_REACTORS
330
C
102
}
330
C
100
AcDbDictionary
281
     1
  3
A0
350
7C4C
  3
A1
350
7C4D
  3
A2
350
7C4E
  3
A3
350
7C4F
  3
A4
350
7C50
  3
A5
350
7C51
  3
A6
350
7C52
  3
A7
350
7C53
  3
A8
350
7C54
  3
A9
350
7C55
  3
B0
350
7C56
  3
B1
350
7C57
  3
B2
350
7C58
  3
B3
350
7C59
  3
B4
350
7C5A
  3
B5
350
7C5B
  3
B6
350
7C5C
  3
B7
350
7C5D
  3
B8
350
7C5E
  3
B9
350
7C5F
  3
C0
350
7C60
  3
C1
350
7C61
  3
C2
350
7C62
  3
C3
350
7C63
  3
C4
350
7C64
  3
C5
350
7C65
  3
C6
350
7C66
  3
C7
350
7C67
  3
C8
350
7C68
  3
C9
350
7C69
  3
D0
350
7C6A
  3
D1
350
7C6B
  3
D2
350
7C6C
  0
DICTIONARY
  5
21B8
102
{ACAD_REACTORS
330
C
102
}
330
C
100
AcDbDictionary
281
     1
  3
DIMASSOC
350
21BA
  3
HIDETEXT
350
21B9
  3
PROJECTNAME
350
77E5
  0
DICTIONARY
  5
7C93
102
{ACAD_REACTORS
330
C
102
}
330
C
100
AcDbDictionary
281
     1
  3
AcDsRecords
350
7C94
  3
AcDsSchemas
350
7C95
1001
ACAD
1070
     2
  0
DICTIONARY
  5
7C8B
102
{ACAD_REACTORS
330
C
102
}
330
C
100
AcDbDictionary
281
     1
  0
XRECORD
  5
7C90
102
{ACAD_REACTORS
330
C
102
}
330
C
100
AcDbXrecord
280
     1
  1
DWGPROPS COOKIE
  2

  3

  4

  6

  7

  8
theodor.kuschma
  9

300
=
301
=
302
=
303
=
304
=
305
=
306
=
307
=
308
=
309
=
 40
0.0
 41
2453808.471610937
 42
2456967.326172037
  1

 90
        0
  0
DICTIONARY
  5
2C
102
{ACAD_REACTORS
330
2B
102
}
330
2B
100
AcDbDictionary
280
     1
281
     1
  0
DICTIONARY
  5
4DB3
102
{ACAD_REACTORS
330
2B
102
}
330
2B
100
AcDbDictionary
281
     1
  0
LAYOUT
  5
1E
102
{ACAD_REACTORS
330
1A
102
}
102
{ACAD_XDICTIONARY
360
7C91
102
}
330
1A
100
AcDbPlotSettings
  1

  2
DesignJet 600 C2847A.pc3
  4
ISO_A3_(420.00_x_297.00_MM)
  6

 40
5.793749809265136
 41
17.79375076293945
 42
5.79376220703125
 43
17.79376220703125
 44
420.0
 45
297.0
 46
0.0
 47
0.0
 48
0.0
 49
0.0
140
0.0
141
0.0
142
1.0
143
1.0
 70
   688
 72
     1
 73
     0
 74
     5
  7

 75
     0
147
1.0
148
0.0
149
0.0
100
AcDbLayout
  1
Layout1
 70
     0
 71
     1
 10
-5.793749809265136
 20
-17.79375076293945
 11
414.2062501907349
 21
279.2062492370605
 12
0.0
 22
0.0
 32
0.0
 14
-6.691121460820909
 24
-21.88330769137039
 34
0.0
 15
413.3088785391791
 25
275.1166923086295
 35
0.0
146
0.0
 13
0.0
 23
0.0
 33
0.0
 16
1.0
 26
0.0
 36
0.0
 17
0.0
 27
1.0
 37
0.0
 76
     0
330
1B
331
8F
  0
LAYOUT
  5
22
102
{ACAD_REACTORS
330
1A
102
}
330
1A
100
AcDbPlotSettings
  1

  2
none_device
  4
ISO_A3_(420.00_x_297.00_MM)
  6

 40
7.5
 41
20.0
 42
7.5
 43
20.0
 44
420.0
 45
297.0
 46
0.0
 47
0.0
 48
0.0
 49
0.0
140
0.0
141
0.0
142
1.0
143
2.321953519861408
 70
  1712
 72
     1
 73
     0
 74
     0
  7

 75
     0
147
0.4306718422424269
148
-5178.905044184539
149
-6027.556979538604
100
AcDbLayout
  1
Model
 70
     1
 71
     0
 10
0.0
 20
0.0
 11
12.0
 21
9.0
 12
0.0
 22
0.0
 32
0.0
 14
0.0
 24
0.0
 34
0.0
 15
0.0
 25
0.0
 35
0.0
146
0.0
 13
0.0
 23
0.0
 33
0.0
 16
1.0
 26
0.0
 36
0.0
 17
0.0
 27
1.0
 37
0.0
 76
     0
330
1F
331
7C21
  0
MLINESTYLE
  5
18
102
{ACAD_REACTORS
330
17
102
}
330
17
100
AcDbMlineStyle
  2
STANDARD
 70
     0
  3

 62
   256
 51
90.0
 52
90.0
 71
     2
 49
0.5
 62
   256
  6
BYLAYER
 49
-0.5
 62
   256
  6
BYLAYER
  0
ACDBPLACEHOLDER
  5
F
102
{ACAD_REACTORS
330
E
102
}
330
E
  0
SCALE
  5
7C4C
102
{ACAD_REACTORS
330
7C4B
102
}
330
7C4B
100
AcDbScale
 70
     0
300
1:1
140
1.0
141
1.0
290
     1
  0
SCALE
  5
7C4D
102
{ACAD_REACTORS
330
7C4B
102
}
330
7C4B
100
AcDbScale
 70
     0
300
1:2
140
1.0
141
2.0
290
     0
  0
SCALE
  5
7C4E
102
{ACAD_REACTORS
330
7C4B
102
}
330
7C4B
100
AcDbScale
 70
     0
300
1:4
140
1.0
141
4.0
290
     0
  0
SCALE
  5
7C4F
102
{ACAD_REACTORS
330
7C4B
102
}
330
7C4B
100
AcDbScale
 70
     0
300
1:5
140
1.0
141
5.0
290
     0
  0
SCALE
  5
7C50
102
{ACAD_REACTORS
330
7C4B
102
}
330
7C4B
100
AcDbScale
 70
     0
300
1:8
140
1.0
141
8.0
290
     0
  0
SCALE
  5
7C51
102
{ACAD_REACTORS
330
7C4B
102
}
330
7C4B
100
AcDbScale
 70
     0
300
1:10
140
1.0
141
10.0
290
     0
  0
SCALE
  5
7C52
102
{ACAD_REACTORS
330
7C4B
102
}
330
7C4B
100
AcDbScale
 70
     0
300
1:16
140
1.0
141
16.0
290
     0
  0
SCALE
  5
7C53
102
{ACAD_REACTORS
330
7C4B
102
}
330
7C4B
100
AcDbScale
 70
     0
300
1:20
140
1.0
141
20.0
290
     0
  0
SCALE
  5
7C54
102
{ACAD_REACTORS
330
7C4B
102
}
330
7C4B
100
AcDbScale
 70
     0
300
1:30
140
1.0
141
30.0
290
     0
  0
SCALE
  5
7C55
102
{ACAD_REACTORS
330
7C4B
102
}
330
7C4B
100
AcDbScale
 70
     0
300
1:40
140
1.0
141
40.0
290
     0
  0
SCALE
  5
7C56
102
{ACAD_REACTORS
330
7C4B
102
}
330
7C4B
100
AcDbScale
 70
     0
300
1:50
140
1.0
141
50.0
290
     0
  0
SCALE
  5
7C57
102
{ACAD_REACTORS
330
7C4B
102
}
330
7C4B
100
AcDbScale
 70
     0
300
1:100
140
1.0
141
100.0
290
     0
  0
SCALE
  5
7C58
102
{ACAD_REACTORS
330
7C4B
102
}
330
7C4B
100
AcDbScale
 70
     0
300
2:1
140
2.0
141
1.0
290
     0
  0
SCALE
  5
7C59
102
{ACAD_REACTORS
330
7C4B
102
}
330
7C4B
100
AcDbScale
 70
     0
300
4:1
140
4.0
141
1.0
290
     0
  0
SCALE
  5
7C5A
102
{ACAD_REACTORS
330
7C4B
102
}
330
7C4B
100
AcDbScale
 70
     0
300
8:1
140
8.0
141
1.0
290
     0
  0
SCALE
  5
7C5B
102
{ACAD_REACTORS
330
7C4B
102
}
330
7C4B
100
AcDbScale
 70
     0
300
10:1
140
10.0
141
1.0
290
     0
  0
SCALE
  5
7C5C
102
{ACAD_REACTORS
330
7C4B
102
}
330
7C4B
100
AcDbScale
 70
     0
300
100:1
140
100.0
141
1.0
290
     0
  0
SCALE
  5
7C5D
102
{ACAD_REACTORS
330
7C4B
102
}
330
7C4B
100
AcDbScale
 70
     0
300
1/128" = 1'-0"
140
0.0078125
141
12.0
290
     0
  0
SCALE
  5
7C5E
102
{ACAD_REACTORS
330
7C4B
102
}
330
7C4B
100
AcDbScale
 70
     0
300
1/64" = 1'-0"
140
0.015625
141
12.0
290
     0
  0
SCALE
  5
7C5F
102
{ACAD_REACTORS
330
7C4B
102
}
330
7C4B
100
AcDbScale
 70
     0
300
1/32" = 1'-0"
140
0.03125
141
12.0
290
     0
  0
SCALE
  5
7C60
102
{ACAD_REACTORS
330
7C4B
102
}
330
7C4B
100
AcDbScale
 70
     0
300
1/16" = 1'-0"
140
0.0625
141
12.0
290
     0
  0
SCALE
  5
7C61
102
{ACAD_REACTORS
330
7C4B
102
}
330
7C4B
100
AcDbScale
 70
     0
300
3/32" = 1'-0"
140
0.09375
141
12.0
290
     0
  0
SCALE
  5
7C62
102
{ACAD_REACTORS
330
7C4B
102
}
330
7C4B
100
AcDbScale
 70
     0
300
1/8" = 1'-0"
140
0.125
141
12.0
290
     0
  0
SCALE
  5
7C63
102
{ACAD_REACTORS
330
7C4B
102
}
330
7C4B
100
AcDbScale
 70
     0
300
3/16" = 1'-0"
140
0.1875
141
12.0
290
     0
  0
SCALE
  5
7C64
102
{ACAD_REACTORS
330
7C4B
102
}
330
7C4B
100
AcDbScale
 70
     0
300
1/4" = 1'-0"
140
0.25
141
12.0
290
     0
  0
SCALE
  5
7C65
102
{ACAD_REACTORS
330
7C4B
102
}
330
7C4B
100
AcDbScale
 70
     0
300
3/8" = 1'-0"
140
0.375
141
12.0
290
     0
  0
SCALE
  5
7C66
102
{ACAD_REACTORS
330
7C4B
102
}
330
7C4B
100
AcDbScale
 70
     0
300
1/2" = 1'-0"
140
0.5
141
12.0
290
     0
  0
SCALE
  5
7C67
102
{ACAD_REACTORS
330
7C4B
102
}
330
7C4B
100
AcDbScale
 70
     0
300
3/4" = 1'-0"
140
0.75
141
12.0
290
     0
  0
SCALE
  5
7C68
102
{ACAD_REACTORS
330
7C4B
102
}
330
7C4B
100
AcDbScale
 70
     0
300
1" = 1'-0"
140
1.0
141
12.0
290
     0
  0
SCALE
  5
7C69
102
{ACAD_REACTORS
330
7C4B
102
}
330
7C4B
100
AcDbScale
 70
     0
300
1-1/2" = 1'-0"
140
1.5
141
12.0
290
     0
  0
SCALE
  5
7C6A
102
{ACAD_REACTORS
330
7C4B
102
}
330
7C4B
100
AcDbScale
 70
     0
300
3" = 1'-0"
140
3.0
141
12.0
290
     0
  0
SCALE
  5
7C6B
102
{ACAD_REACTORS
330
7C4B
102
}
330
7C4B
100
AcDbScale
 70
     0
300
6" = 1'-0"
140
6.0
141
12.0
290
     0
  0
SCALE
  5
7C6C
102
{ACAD_REACTORS
330
7C4B
102
}
330
7C4B
100
AcDbScale
 70
     0
300
1'-0" = 1'-0"
140
12.0
141
12.0
290
     0
  0
DICTIONARYVAR
  5
21BA
102
{ACAD_REACTORS
330
21B8
102
}
330
21B8
100
DictionaryVariables
280
     0
  1
2
  0
DICTIONARYVAR
  5
21B9
102
{ACAD_REACTORS
330
21B8
102
}
330
21B8
100
DictionaryVariables
280
     0
  1
1
  0
DICTIONARYVAR
  5
77E5
102
{ACAD_REACTORS
330
21B8
102
}
330
21B8
100
DictionaryVariables
280
     0
  1

  0
DICTIONARY
  5
7C94
102
{ACAD_REACTORS
330
7C93
102
}
330
7C93
100
AcDbDictionary
281
     1
  0
DICTIONARY
  5
7C95
102
{ACAD_REACTORS
330
7C93
102
}
330
7C93
100
AcDbDictionary
281
     1
  3
8796082132640
350
7C96
  3
8796082132656
350
7C97
  3
8796082132672
350
7C98
  3
8796082132688
350
7C99
  3
8796082132704
350
7C9A
  3
8796082132720
350
7C9B
  0
DICTIONARY
  5
7C91
330
1E
100
AcDbDictionary
280
     1
281
     1
  3
ADSK_XREC_LAYOUTTHUMBNAIL
360
7C92
  0
XRECORD
  5
7C96
102
{ACAD_REACTORS
330
7C95
102
}
330
7C95
100
AcDbXrecord
280
     1
  1
AcDb_Thumbnail_Schema
102
{ATTRRECORD
341
7C98
  2
AcDbDs::TreatedAsObjectData
280
     1
291
     1
102
ATTRRECORD}
102
{ATTRRECORD
341
7C99
  2
AcDbDs::Legacy
280
     1
291
     1
102
ATTRRECORD}
  2
AcDbDs::ID
280
    10
 91
        8
102
{ATTRRECORD
341
7C9A
  2
AcDs:Indexable
280
     1
291
     1
102
ATTRRECORD}
102
{ATTRRECORD
341
7C9B
  2
AcDbDs::HandleAttribute
280
     7
282
     1
102
ATTRRECORD}
  2
Thumbnail_Data
280
    15
 91
        0
  0
XRECORD
  5
7C97
102
{ACAD_REACTORS
330
7C95
102
}
330
7C95
100
AcDbXrecord
280
     1
  1
AcDb3DSolid_ASM_Data
102
{ATTRRECORD
341
7C98
  2
AcDbDs::TreatedAsObjectData
280
     1
291
     1
102
ATTRRECORD}
102
{ATTRRECORD
341
7C99
  2
AcDbDs::Legacy
280
     1
291
     1
102
ATTRRECORD}
  2
AcDbDs::ID
280
    10
 91
        8
102
{ATTRRECORD
341
7C9A
  2
AcDs:Indexable
280
     1
291
     1
102
ATTRRECORD}
102
{ATTRRECORD
341
7C9B
  2
AcDbDs::HandleAttribute
280
     7
282
     1
102
ATTRRECORD}
  2
ASM_Data
280
    15
 91
        0
  0
XRECORD
  5
7C98
102
{ACAD_REACTORS
330
7C95
102
}
330
7C95
100
AcDbXrecord
280
     1
  1
AcDbDs::TreatedAsObjectDataSchema
  2
AcDbDs::TreatedAsObjectData
280
     1
 91
        0
  0
XRECORD
  5
7C99
102
{ACAD_REACTORS
330
7C95
102
}
330
7C95
100
AcDbXrecord
280
     1
  1
AcDbDs::LegacySchema
  2
AcDbDs::Legacy
280
     1
 91
        0
  0
XRECORD
  5
7C9A
102
{ACAD_REACTORS
330
7C95
102
}
330
7C95
100
AcDbXrecord
280
     1
  1
AcDbDs::IndexedPropertySchema
  2
AcDs:Indexable
280
     1
 91
        0
  0
XRECORD
  5
7C9B
102
{ACAD_REACTORS
330
7C95
102
}
330
7C95
100
AcDbXrecord
280
     1
  1
AcDbDs::HandleAttributeSchema
  2
AcDbDs::HandleAttribute
280
     7
 91
        1
284
     1
  0
XRECORD
  5
7C92
102
{ACAD_REACTORS
330
7C91
102
}
330
7C91
100
AcDbXrecord
280
     1
310
28000000B40000007F00000001000800000000004C590000000000000000000000010000000000000000000000000000FFFFFF000000000000000000000000000000000000000000000000000000000000000000330000006600000099000000CC000000FF00000000330000333300006633000099330000CC330000FF3300
310
0000660000336600006666000099660000CC660000FF66000000990000339900006699000099990000CC990000FF99000000CC000033CC000066CC000099CC0000CCCC0000FFCC000000FF000033FF000066FF000099FF0000CCFF0000FFFF000000003300330033006600330099003300CC003300FF003300003333003333
310
33006633330099333300CC333300FF33330000663300336633006666330099663300CC663300FF66330000993300339933006699330099993300CC993300FF99330000CC330033CC330066CC330099CC3300CCCC3300FFCC330000FF330033FF330066FF330099FF3300CCFF3300FFFF330000006600330066006600660099
310
006600CC006600FF00660000336600333366006633660099336600CC336600FF33660000666600336666006666660099666600CC666600FF66660000996600339966006699660099996600CC996600FF99660000CC660033CC660066CC660099CC6600CCCC6600FFCC660000FF660033FF660066FF660099FF6600CCFF6600
310
FFFF660000009900330099006600990099009900CC009900FF00990000339900333399006633990099339900CC339900FF33990000669900336699006666990099669900CC669900FF66990000999900339999006699990099999900CC999900FF99990000CC990033CC990066CC990099CC9900CCCC9900FFCC990000FF99
310
0033FF990066FF990099FF9900CCFF9900FFFF99000000CC003300CC006600CC009900CC00CC00CC00FF00CC000033CC003333CC006633CC009933CC00CC33CC00FF33CC000066CC003366CC006666CC009966CC00CC66CC00FF66CC000099CC003399CC006699CC009999CC00CC99CC00FF99CC0000CCCC0033CCCC0066CC
310
CC0099CCCC00CCCCCC00FFCCCC0000FFCC0033FFCC0066FFCC0099FFCC00CCFFCC00FFFFCC000000FF003300FF006600FF009900FF00CC00FF00FF00FF000033FF003333FF006633FF009933FF00CC33FF00FF33FF000066FF003366FF006666FF009966FF00CC66FF00FF66FF000099FF003399FF006699FF009999FF00CC
310
99FF00FF99FF0000CCFF0033CCFF0066CCFF0099CCFF00CCCCFF00FFCCFF0000FFFF0033FFFF0066FFFF0099FFFF00CCFFFF00FFFFFF00000000000D0D0D001A1A1A00282828003535350043434300505050005D5D5D006B6B6B00787878008686860093939300A1A1A100AEAEAE00BBBBBB00C9C9C900D6D6D600E4E4E400
310
F1F1F100FFFFFF0000000000000000000000000000000000000000000000000000000000000000000000000000000000F5F50F0F0F0F0F0F0F0F0F0F0F0F0F0F0F0F0F0F0F0F0F0F0F0F0F0F0F0F0F0F0F0F0F0F0F0F0F0F0F0F0F0F0F0F0F0F0F0F0F0F0F0F0F0F0F0F0F0F0F0F0F0F0F0F0F0F0F0F0F0F0F0F0F0F0F0F0F
310
0F0F0F0F0F0F0F0F0F0F0F0F0F0F0F0F0F0F0F0F0F0F0F0F0F0F0F0F0F0F0F0F0F0F0F0F0F0F0F0F0F0F0F0F0F0F0F0F0F0F0F0F0F0F0F0FF5F50FF5F5F50FF5F5F5F5F5F5F5F50F0F0F0F0F0FF5F5F5F50F0F0F0F0FF5F5F5F5F50F0F0F0F0FF5F5F5F5F5F5E20FE2F5F5F5F5F5F5F5F5E2E2E2E2E2E2E2E2E2F5F5F5F5F5
310
F5F5F5F5F5F5F5F5F5F5F5E2E2E2E2E2E2E2E2F5F5F5F5F5F5F5F5F5F5F5F5F5F5F5F5E2E2E2E2E2E2E2E2E2F5F5F5F5F5F5F5F5F5F5F5F5F5F5F5E2E2E2E2E2E2E2E2E2F5F5F5F5F5F5F5F5F5F5F5F5F5F5F5E2E2E2E2E2E2E2E2F5F5F5F5F5F5F5F5F5F5F5F5F5F5F5F5F5E2F5F5F5F5F5F5F5F5F5F5F5F5F5F5F5131313
310
131313F5F5F5F5F5F5F5F5F5F5F5F5F5F5F5F5F5F5F5F5E2E2F5F5F5E20FE2F5E2E2E2E2E2E2E2E2E2E2E2E2E2E2E2E2E2E2E2E2E2E2E2E2E2E2E2E2E2E2E2E2E2E2E2E2E2E2E2E2E2E2E2E2E2E2E2E2E2E2E2E2E2E2E2E2E2E2E2E2E2E2E2E2E2E2E2E2E2E2E2E2E2E2E2E2E2E2E2E2E2E2E2E2E2E2E2E2E2E2E2E2E2E2E2
310
E2E2E2E2E2E2E2E2E2E2E2E2E2E2E2E2E2E2E2E2E2E2E2E2E2E2E2E2E2E2E2E2E2E2E20FF5F5F5F5F5F5F5F5F5F5F5F5F5F5F5F5F5F5F5F5F5E2E2E2E2C3C3C3C3C3E2E2E2E2E2E2F5F5F5F5E2E2F5F5F5E20FE2F5E2E2E2E2E2E2E2E2E2E2E2E2E2E2E2E2E2E2E2E2E2E2E2E2E2E2E2E2E2E2E2E2E2E2E2E2E2E2E2E2E2E2
310
E2E2E2E2E2E2E2E2E2E2E2E2E2E2E2E2E2E2E2E2E2E2E2E2E2E2E2E2E2E2E2E2E2E2E2E2E2E2E2E2E2E2E2E2E2E2E2E2E2E2E2E2E2E2E2E2E2E2E2E2E2E2E2E2E2E2E2E2E2E2E2E2E2E2E2E2E2E2E2E2E2E2E2E2E2E2E2E20FF5F5F5F5F5F5F5F5F5F5F5F5F5F5F5F5F5F5F5F5F5F5F5F5E2C3C3C3C3C3C3E2E2E2E2E2F5F5
310
0FF5E2E2F5F5F5E20FE2F5E2E2E2E2E2E2E2E2E2E2E2E2E2E2E2E2E2E2E2E2E2E2E2E2E2E2E2E2E2E2E2E2E2E2E2E2E2E2E2E2E2E2E2E2E2E2E2E2E2E2E2E2E2E2E2E2E2E2E2E2E2E2E2E2E2E2E2E2E2E2E2E2E2E2E2E2E2E2E2E2E2E2E2E2E2E2E2E2E2E2E2E2E2E2E2E2E2E2E2E2E2E2E2E2E2E2E2E2E2E2E2E2E2E2E2E2
310
E2E2E2E2E2E2E2E2E2E2E2E2E2E20FF50F0F0F0F0FF50F0FF5F5F5F5F5F5F5F5F5F5F5F5CCCCCCCCCCCCCCCCCCCCCCCCCCCCCCF5F50FF5E2E2F5F5F5E20FE2F5E2E2E2E2E2E2E2E2E2E2E2E2E2E2E2E2E2E2E2E2E2E2E2E2E2E2E2E2E2E2E2E2E2E2E2E2E2E2E2E2E2E2E2E2E2E2E2E2E2E2E2E2E2E2E2E2E2E2E2E2E2E2E2
310
E2E2E2E2E2E2E2E2E2E2E2E2E2E2E2E2E2E2E2E2E2E2E2E2E2E2E2E2E2E2E2E2E2E2E2E2E2E2E2E2E2E2E2E2E2E2E2E2E2E2E2E2E2E2E2E2E2E2E2E2E2E2E2E2E2E2E20FF5F5F5F5F5F5F5F5F5F5F5F5F5F5F5F5F5F5F5F5F5CCCCCCCCCCCCCCCCCCCCCCCCCCCCCCE2E20FF5E2E2F5F5F5E20FE2F5E2E2E2E2E2E2E2E2E2E2
310
E2E2E2E2E2E2E2E2E2E2E2E2E2E2E2E2E2E2E2E2E2E2E2E2E2E2E2E2E2E2E2E2E2E2E2E2E2E2E2E2E2E2E2E2E2E2E2E2E2E2E2E2E2E2E2E2E2E2E2E2E2E2E2E2E2E2E2E2E2E2E2E2E2E2E2E2E2E2E2E2E2E2E2E2E2E2E2E2E2E2E2E2E2E2E2E2E2E2E2E2E2E2E2E2E2E2E2E2E2E2E2E2E2E2E2E2E2E2E2E20FF5F5F5F5F5F5
310
F5F5F5F5F5F5F5F5F5F5F5F5F5F5F5E2E2E2C3C3C3C3C3C3C3C3C3E2E2E2E2E20FF5E2E2F5F5F5E20FE2F5E2E2E2E2E2E2E2E2E2E2E2E2E2E2E2E2E2E2E2E2E2E2E2E2E2E2E2E2E2E2E2E2E2E2E2E2E2E2E2E2E2E2E2E2E2E2E2E2E2E2E2E2E2E2E2E2E2E2E2E2E2E2E2E2E2E2E2E2E2E2E2E2E2E2E2E2E2E2E2E2E2E2E2E2
310
E2E2E2E2E2E2E2E2E2E2E2E2E2E2E2E2E2E2E2E2E2E2E2E2E2E2E2E2E2E2E2E2E2E2E2E2E2E2E2E2E2E2E2E2E2E20FF5F5F5F5F5F5F5F5F5F5F5F5F5F5F5F5F5F5F5F5F5F5F5F5C3C3C3C3C3C3C3C3C3E2E2E2E2E20FF5E2E2F5F5F5E20FE2F5E2E2E2E2E2E2E2E2E2E2E2E2E2E2E2E2E2E2E2E2E2E2E2E2E2E2E2E2E2E2E2
310
E2E2E2E2E2E2E2E2E2E2E2E2E2E2E2E2E2E2E2E2E2E2E2E2E2E2E2E2E2E2E2E2E2E2E2E2E2E2E2E2E2E2E2E2E2E2E2E2E2E2E2E2E2E2E2E2E2E2E2E2E2E2E2E2E2E2E2E2E2E2E2E2E2E2E2E2E2E2E2E2E2E2E2E2E2E2E2E2E2E2E2E2E2E2E2E2E2E2E20FF50F0F0F0F0FF50F0FF5F50FF5F5F5F5F5F5F50FF5F5F5F50F0F0F
310
0F0F0F0F0F0F0F0F0F0F0F0FF5E2E2F5F5F5E20FE2E2E2E2E2E2E2E2E2E2E2E2E2E2E2E2E2E2E2E2E2E2E2E2E2E2E2E2E2E2E2E2E2E2E2E2E2E2E2E2E2E2E2E2E2E2E2E2E2E2E2E2E2E2E2E2E2E2E2E2E2E2E2E2E2E2E2E2E2E2E2E2E2E2E2E2E2E2E2E2E2E2E2E2E2E2E2E2E2E2E2E2E2E2E2E2E2E2E2E2E2E2E2E2E2E2E2
310
E2E2E2E2E2E2E2E2E2E2E2E2E2E2E2E2E2E2E2E2E2E2E2E2E20FE2E2E2E2E2E2E2E2E2E2F5F5F5F5F5F5F5E2E2E2F5F5F5F5E2CCE2E2E2E2E2E2E2E2E2E2E2E20FF5E2E2F5F5F5E20FE2E2E2E2E2E2E2E2E2E2E2E2E2E2E2E2E2E2E2E2E2E2E2E2E2E2E2E2E2E2E2E2E2E2E2E2E2E2E2E2E2E2E2E2E2E2E2E2E2E2E2E2E2E2
310
E2E2E2E2E2E2E2E2E2E2E2E2E2E2E2E2E2E2E2E2E2E2E2E2E2E2E2E2E2E2E2E2E2E2E2E2E2E2E2E2E2E2E2E2E2E2E2E2E2E2E2E2E2E2E2E2E2E2E2E2E2E2E2E2E2E2E2E2E2E2E2E2E2E2E2E2E2E20FE2E2E2E2E2E2E2E2E2E2F5F5F5F5F5E2F5E2E2E2F5F5F5F5E2CCE2E2E2E2E2E2E2E2E2E2E2E20FF5E2E2F5F5F5E20FE2
310
E2E2E2E2E2E2E2E2E2E2E2E2E2E2E2E2E2E2E2E2E2E2E2E2E2E2E2E2E2E2E2E2E2E2E2E2E2E2E2E2E2E2E2E2E2E2E2E2E2E2E2E2E2E2E2E2E2E2E2E2E2E2E2E2E2E2E2E2E2E2E2E2E2E2E2E2E2E2E2E2E2E2E2E2E2E2E2E2E2E2E2E2E2E2E2E2E2E2E2E2E2E2E2E2E2E2E2E2E2E2E2E2E2E2E2E2E2E2E2E2E2E2E2E2E2E2E2
310
E2E2E2E2F5F5F5F5F5F5F5E2E2E2E2F5F5F5F5E2E2F5F5F5E2F5F5F5F5F5F5F5F5F5F5F5F5F5F5CCCCCCF5F5F5E2E2F5F5F5E20FE2F5F5F5F5F5F5F5F5F5F5F5F5F5F5F5F5F5F5F5F5F5F5F5F5F5F5F5F5F5F5F5F5F5F5F5F5F5F5F5F5F5F5F5F5F5F5F5F5F5F5F5F5F5F5F5F5F5F5F5F5F5F5F5F5F5F5F5F5F5F5F5F5F5F5
310
F5F5F5F5F5F5F5F5F5F5F5F5F5F5F5F5F5F5F5F5F5F5F5F5F5F5F5F5F5F5F5F5F5F5F5F5F5F5F5F5F5F5F5F5F5F5F5F5F5F5F5F5F5F5F5F5F5F5F5F5F5F5F5F5F5F5F5F5F5F5F5F5F5F5F5F5F5F5F5F5F5F5F5F5F5F5F5F5F5F5F5F5F5F5F5F50FF5E2E2F5F5F5E20FE2F5E2E2E2E2E2E2E2E2E2E2E2E2E2E2E2E2E2E2E2E2
310
E2E2E2E2E2E2E2E2E2E2E2E2E2E2E2E2E2E2E2E2E2E2E2E2E2E2E2E2E2E2E2E2E2E2E2E2E2E2E2E2E2E2E2E2E2E2E2E2E2E2E2E2E2E2E2E2E2E2E2E2E2E2E2E2E2E2E2E2E2E2E2E2E2E2E2E2E2E2E2E2E2E2E2E2E2E2E2E2E2E2E2E2E2E2E2E2E2E2E2E2E2E2E2E2E2E2E2E2E2E2E2E2E2E2E2E2E2E2E2E2E2E2E2E2E2E2E2
310
E2E2E2E2E2E2E2E2E2E2E2E2E2E2E2E2E2E2E2E2E2F50FF5E2E2F5F5F5E20FE2F5E2E2E2E2E2E2E2E2E2E2E2E2E2E2E2E2E2E2E2E2E2E2E2E2E2E2E2E2E2E2E2E2E2E2E2E2E2E2E2E2E2E2E2E2E2E2E2E2E2E2E2E2E2E2E2E2E2E2E2E2E2E2E2E2E2E2E2E2E2E2E2E2E2E2E2E2E2E2E2E2E2E2E2E2E2E2E2E2E2E2E2E2E2E2
310
E2E2E2E2E2E2E2E2E2E2E2E2E2E2E2E2E2E2E2E2E2E2E2E2E2E2E2E2E2E2E2E2E2E2E2E2E2E2E2E2E2E2E2E2E2E2E2E2E2E2E2E2E2E2E2E2E2E2E2E2E2E2E2E2E2E2E2E2E2E2E2E2E2E2F50FF5E2E2F5F5F5E20FE2F5E2E2E2E2E2E2E2E2E2E2E2E2E2E2E2E2E2E2E2E2E2E2E2E2E2E2E2E2E2E2E2E2E2E2E2E2E2E2E2E2E2
310
E2E2E2E2E2E2E2E2E2E2E2E2E2E2E2E2E2E2E2E2E2E2E2E2E2E2E2E2E2E2E2E2E2E2E2E2E2E2E2E2E2E2E2E2E2E2E2E2E2E2E2E2E2E2E2E2E2E2E2E2E2E2E2E2E2E2E2E2E2E2E2E2E2E2E2E2E2E2E2E2E2E2E2E2E2E2E2E2E2E2E2E2E2E2E2E2E2E2E2E2E2E2E2E2E2E2E2E2E2E2E2E2E2E2E2E2E2E2E2E2E2E2E2E2E2E2E2
310
F50FF5E2E2F5F5F5E20FE2F5E2E2E2E2E2E2E2E2E2E2E2E2E2E2E2E2E2E2E2E2E2E2E2E2E2E2E2E2E2E2E2E2E2E2E2E2E2E2E2E2E2E2E2E2E2E2E2E2E2E2E2E2E2E2E2E2E2E2E2E2E2E2E2E2E2E2E2E2E2E2E2E2E2E2E2E2E2E2E2E2E2E2E2E2E2E2E2E2E2E2E2E2E2E2E2E2E2E2E2E2E2E2E2E2E2E2E2E2E2E2E2E2E2E2E2
310
E2E2E2E2E2E2E2E2E2E2E2E2E2E2E2E2E2E2E2E2E2E2E2E2E2E2E2E2E2E2E2E2E2E2E2E2E2E2E2E2E2E2E2E2E2E2E2E2E2E2E2E2E2F50FF5E2E2F5F5F5E20FE2F5E2E2E2E2E2E2E2E2E2E2E2E2E2E2E2E2E2E2E2E2E2E2E2E2E2E2E2E2E2E2E2E2E2E2E2E2E2E2E2E2E2E2E2E2E2E2E2E2E2E2E2E2E2E2E2E2E2E2E2E2E2E2
310
E2E2E2E2E2E2E2E2E2E2E2E2E2E2E2E2E2E2E2E2E2E2E2E2E2E2E2E2E2E2E2E2E2E2E2E2E2E2E2E2E2E2E2E2E2E2E2E2E2E2E2E2E2E2E2E2E2E2E2E2E2E2E2E2E2E2E2E2E2E2E2E2E2E2E2E2E2E2E2E2E2E2E2E2E2E2E2E2E2E2E2E2E2E2E2E2E2E2E2E2E2E2E2E2E2E2F50FF5E2E2F5F5F5E20FE2F5E2E2E2E2E2E2E2E2E2
310
E2E2E2E2E2E2E2E2E2E2E2E2E2E2E2E2E2E2E2E2E2E2E2E2E2E2E2E2E2E2E2E2E2E2E2E2E2E2E2E2E2E2E2E2E2E2E2E2E2E2E2E2E2E2E2E2E2E2E2E2E2E2E2E2E2E2E2E2E2E2E2E2E2E2E2E2E2E2E2E2E2E2E2E2E2E2E2E2E2E2E2E2E2E2E2E2E2E2E2E2E2E2E2E2E2E2E2E2E2E2E2E2E2E2E2E2E2E2E2E2E2E2E2E2E2E2E2
310
E2E2E2E2E2E2E2E2E2E2E2E2E2E2E2E2E2E2E2E2E2E2E2E2E2E2E2E2E2E2E2E2F50FF5E2E2F5F5F5E20FE2F5E2E2E2E2E2E2E2E2E2E2E2E2E2E2E2E2E2E2E2E2E2E2E2E2E2E2E2E2E2E2E2E2E2E2E2E2E2E2E2E2E2E2E2E2E2E2E2E2E2E2E2E2E2E2E2E2E2E2E2E2E2E2E2E2E2E2E2E2E2E2E2E2E2E2E2E2E2E2E2E2E2E2E2
310
E2E2E2E2E2E2E2E2E2E2E2E2E2E2E2E2E2E2E2E2E2E2E2E2E2E2E2E2E2E2E2E2E2E2E2E2E2E2E2E2E2E2E2E2E2E2E2E2E2E2E2E2E2E2E2E2E2E2E2E2E2E2E2E2E2E2E2E2E2E2E2E2E2E2E2E2E2E2E2E2E2E2E2E2E2F50FF5E2E2F5F5F5E20FE2F5E2E2E2E2E2E2E2E2E2E2E2E2E2E2E2E2E2E2E2E2E2E2E2E2E2E2E2E2E2E2
310
E2E2E2E2E2E2E2E2E2E2E2E2E2E2E2E2E2E2E2E2E2E2E2E2E2E2E2E2E2E2E2E2E2E2E2E2E2E2E2E2E2E2E2E2E2E2E2E2E2E2E2E2E2E2E2E2E2E2E2E2E2E2E2E2E2E2E2E2E2E2E2E2E2E2E2E2E2E2E2E2E2E2E2E2E2E2E2E2E2E2E2E2E2E2E2E2E2E2E2E2E2E2E2E2E2E2E2E2E2E2E2E2E2E2E2E2E2E2E2E2E2E2E2E2E2E2E2
310
E2E2E2E2E2E2E2E2E2E2E2F50FF5E2E2F5F5F5E20FE2F5E2E2E2E2E2E2E2E2E2E2E2E2E2E2E2E2E2E2E2E2E2E2E2E2E2E2E2E2E2E2E2E2E2E2E2E2E2E2E2E2E2E2E2E2E2E2E2E2E2E2E2E2E2E2E2E2E2E2E2E2E2E2E2E2E2E2E2E2E2E2E2E2E2E2E2E2E2E2E2E2E2E2E2E2E2E2E2E2E2E2E2E2E2E2E2E2E2E2E2E2E2E2E2E2
310
E2E2E2E2E2E2E2E2E2E2E2E2E2E2E2E2E2E2E2E2E2E2E2E2E2E2E2E2E2E2E2E2E2E2E2E2E2E2E2E2E2E2E2E2E2E2E2E2E2E2E2E2E2E2E2E2E2E2E2E2E2E2E2E2F50FF5E2E2F5F5F5E20FE2F5E2E2E2E2E2E2E2E2E2E2E2E2E2E2E2E2E2E2E2E2E2E2E2E2E2E2E2E2E2E2E2E2E2E2E2E2E2E2E2E2E2E2E2E2E2E2E2E2E2E2E2
310
E2E2E2E2E2E2E2E2E2E2E2E2E2E2E2E2E2E2E2E2E2E2E2E2E2E2E2E2E2E2E2E2E2E2E2E2E2E2E2E2E2E2E2E2E2E2E2E2E2E2E2E2E2E2E2E2E2E2E2E2E2E2E2E2E2E2E2E2E2E2E2E2E2E2E2E2E2E2E2E2E2E2E2E2E2E2E2E2E2E2E2E2E2E2E2E2E2E2E2E2E2E2E2E2E2E2E2E2E2E2E2E2E2E2E2E2E2F50FF5E2E2F5F5F5E20F
310
E2F5E2E2E2E2E2E2E2E2E2E2E2E2E2E2E2E2E2E2E2E2E2E2E2E2E2E2E2E2E2E2E2E2E2E2E2E2E2E2E2E2E2E2E2E2E2E2E2E2E2E2E2E2E2E2E2E2E2E2E2E2E2E2E2E2E2E2E2E2E2E2E2E2E2E2E2E2E2E2E2E2E2E2E2E2E2E2E2E2E2E2E2E2E2E2E2E2E2E2E2E2E2E2E2E2E2E2E2E2E2E2E2E2E2E2E2E2E2E2E2E2E2E2E2E2E2
310
E2E2E2E2E2E2E2E2E2E2E2E2E2E2E2E2E2E2E2E2E2E2E2E2E2E2E2E2E2E2E2E2E2E2E2E2E2E2E2E2E2E2E2F50FF5E2E2F5F5F5E20FE2F5E2E2E2E2E2E2E2E2E2E2E2E2E2E2E2E2E2E2E2E2E2E2E2E2E2E2E2E2E2E2E2E2E2E2E2E2E2E2E2E2E2E2E2E2E2E2E2E2E2E2E2E2E2E2E2E2E2E2E2E2E2E2E2E2E2E2E2E2E2E2E2E2
310
E2E2E2E2E2E2E2E2E2E2E2E2E2E2E2E2E2E2E2E2E2E2E2E2E2E2E2E2E2E2E2E2E2E2E2E2E2E2E2E2E2E2E2E2E2E2E2E2E2E2E2E2E2E2E2E2E2E2E2E2E2E2E2E2E2E2E2E2E2E2E2E2E2E2E2E2E2E2E2E2E2E2E2E2E2E2E2E2E2E2E2E2E2E2E2E2F50FF5E2E2F5F5F5E20FE2F5E2E2E2E2E2E2E2E2E2E2E2E2E2E2E2E2E2E2E2
310
E2E2E2E2E2E2E2E2E2E2E2E2E2E2E2E2E2E2E2E2E2E2E2E2E2E2E2E2E2E2E2E2E2E2E2E2E2E2E2E2E2E2E2E2E2E2E2E2E2E2E2E2E2E2E2E2E2E2E2E2E2E2E2E2E2E2E2E2E2E2E2E2E2E2E2E2E2E2E2E2E2E2E2E2E2E2E2E2E2E2E2E2E2E2E2E2E2E2E2E2E2E2E2E2E2E2E2E2E2E2E2E2E2E2E2E2E2E2E2E2E2E2E2E2E2E2E2
310
E2E2E2E2E2E2E2E2E2E2E2E2E2E2E2E2E2E2E2E2E2E2F50FF5E2E2F5F5F5E20FE2F5E2E2E2E2E2E2E2E2E2E2E2E2E2E2E2E2E2E2E2E2E2E2E2E2E2E2E2E2E2E2E2E2E2E2E2E2E2E2E2E2E2E2E2E2E2E2E2E2E2E2E2E2E2E2E2E2E2E2E2E2E2E2E2E2E2E2E2E2E2E2E2E2E2E2E2E2E2E2E2E2E2E2E2E2E2E2E2E2E2E2E2E2E2
310
E2E2E2E2E2E2E2E2E2E2E2E2E2E2E2E2E2E2E2E2E2E2E2E2E2E2E2E2E2E2E2E2E2E2E2E2E2E2E2E2E2E2E2E2E2E2E2E2E2E2E2E2E2E2E2E2E2E2E2E2E2E2E2E2E2E2E2E2E2E2E2E2E2E2E2F50FF5E2E2F5F5F5E20FE2F5E2E2E2E2E2E2E2E2E2E2E2E2E2E2E2E2E2E2E2E2E2E2E2E2E2E2E2E2E2E2E2E2E2E2E2E2E2E2E2E2
310
E2E2E2E2E2E2E2E2E2E2E2E2E2E2E2E2E2E2E2E2E2E2E2E2E2E2E2E2E2E2E2E2E2E2E2E2E2E2E2E2E2E2E2E2E2E2E2E2E2E2E2E2E2E2E2E2E2E2E2E2E2E2E2E2E2E2E2E2E2E2E2E2E2E2E2E2E2E2E2E2E2E2E2E2E2E2E2E2E2E2E2E2E2E2E2E2E2E2E2E2E2E2E2E2E2E2E2E2E2E2E2E2E2E2E2E2E2E2E2E2E2E2E2E2E2E2E2
310
E2F50FF5E2E2F5F5F5E20FE2F5E2E2E2E2E2E2E2E2E2E2E2E2E2E2E2E2E2E2E2E2E2E2E2E2E2E2E2E2E2E2E2E2E2E2E2E2E2E2E2E2E2E2E2E2E2E2E2E2E2E2E2E2E2E2E2E2E2E2E2E2E2E2E2E2E2E2E2E2E2E2E2E2E2E2E2E2E2E2E2E2E2E2E2E2E2E2E2E2E2E2E2E2E2E2E2E2E2E2E2E2E2E2E2E2E2E2E2E2E2E2E2E2E2E2
310
E2E2E2E2E2E2E2E2E2E2E2E2E2E2E2E2E2E2E2E2E2E2E2E2E2E2E2E2E2E2E2E2E2E2E2E2E2E2E2E2E2E2E2E2E2E2E2E2E2E2E2E2E2E2F50FF5E2E2F5F5F5E20FE2F5E2E2E2E2E2E2E2E2E2E2E2E2E2E2E2E2E2E2E2E2E2E2E2E2E2E2E2E2E2E2E2E2E2E2E2E2E2E2E2E2E2E2E2E2E2E2E2E2E2E2E2E2E2E2E2E2E2E2E2E2E2
310
E2E2E2E2E2E2E2E2E2E2E2E2E2E2E2E2E2E2E2E2E2E2E2E2E2E2E2E2E2E2E2E2E2E2E2E2E2E2E2E2E2E2E2E2E2E2E2E2E2E2E2E2E2E2E2E2E2E2E2E2E2E2E2E2E2E2E2E2E2E2E2E2E2E2E2E2E2E2E2E2E2E2E2E2E2E2E2E2E2E2E2E2E2E2E2E2E2E2E2E2E2E2E2E2E2E2E2F50FF5E2E2F5F5F5E20FE2F5E2E2E2E2E2E2E2E2
310
E2E2E2E2E2E2E2E2E2E2E2E2E2E2E2E2E2E2E2E2E2E2E2E2E2E2E2E2E2E2E2E2E2E2E2E2E2E2E2E2E2E2E2E2E2E2E2E2E2E2E2E2E2E2E2E2E2E2E2E2E2E2E2E2E2E2E2E2E2E2E2E2E2E2E2E2E2E2E2E2E2E2E2E2E2E2E2E2E2E2E2E2E2E2E2E2E2E2E2E2E2E2E2E2E2E2E2E2E2E2E2E2E2E2E2E2E2E2E2E2E2BEBEE2E2E2BE
310
E2BEE2E2E2E2E2E2E2E2E2E2E2E2E2E2E2E2E2E2E2E2E2E2E2E2E2E2E2E2E2E2E2F50FF5E2E2F5F5F5E20FE2F5E2E2E2E2E2E2E2E2E2E2E2E2E2E2E2E2BEE2E2E2E2E2E2E2E2E2E2BEBEBEE2E2E2E2E2BEBEBEE2E2E2E2E2E2E2E2E2E2E2E2E2E2E2E2E2BEBEBEE2E2E2E2E2E2E2E2E2E2E2E2E2E2E2E2E2E2BEBEE2E2E2E2
310
E2E2E2BEBEBEE2E2E2E2E2E2E2E2E2E2E2E2E2E2E2E2E2E2E2E2E2E2E2E2E2E2E2E2E2E2E2E2E2E2E2E2E2E2E2E2BEBEBEBEE2E2BEBEBEBEE2E2E2E2E2E2E2E2E2E2E2E2E2E2E2E2E2E2E2E2E2E2E2E2E2E2E2E2E2E2F50FF5E2E2F5F5F5E20FE2F5E2E2E2E2E2E2E2E2E2E2E2E2E2E2E2BEBEBEE2E2E2E2E2E2E2E2E2BEBE
310
BEE2E2E2E2E2BEBEBEE2E2E2E2E2E2E2E2E2E2E2E2E2E2E2E2E2E2BEBEE2E2E2E2E2E2E2E2E2E2E2E2E2E2E2E2E2BEBEBEE2E2E2E2E2E2E2E2BEBEE2E2E2E2E2E2E2E2E2E2E2E2E2E2E2E2E2E2E2E2E2E2E2E2E2E2E2E2E2E2E2E2E2E2E2E2E2E2E2E2BEBEBEBEE2BEBEBEE2BEE2E2E2E2E2E2E2E2E2E2E2E2E2E2E2E2E2E2
310
E2E2E2E2E2E2E2E2E2E2E2E2F50FF5E2E2F5F5F5E20FE2F5E2E2E2E2E2E2E2E2E2E2E2E2E2E2F5F5BEE2E2E2E2E2E2E2E2E2F5BEBEE2E2E2E2E2F5BEBEBEE2E2E2E2E2E2E2E2E2E2E2E2E2E2E2E2F5F5BEBEE2E2E2E2E2E2E2E2E2E2E2E2E2E2E2E2E2F5BEBEE2E2E2E2E2E2F5F5BEBEE2E2E2E2E2E2E2E2E2E2E2E2E2E2E2
310
E2E2E2E2E2E2E2E2E2E2E2E2E2E2E2E2E2E2E2E2E2E2E2E2F5BEBEE2E2BEE2BEBEBEE2E2E2E2E2E2E2E2E2E2E2E2E2E2E2E2E2E2E2E2E2E2E2E2E2E2E2E2E2E2E2F50FF5E2E2F5F5F5E20FE2F5E2E2E2E2E2E2E2E2E2E2E2E2E2E2F5E2E2E2E2E2E2E2E2E2E2E2F5E2E2E2E2E2E2F5E2E2E2E2E2E2E2E2E2E2E2E2E2E2E2E2
310
E2E2E2E2F5E2E2E2E2E2E2E2E2E2E2E2E2E2E2E2E2E2E2E2E2F5E2E2E2E2E2E2E2E2F5E2E2E2E2E2E2E2E2E2E2E2E2E2E2E2E2E2E2E2E2E2E2E2E2E2E2E2E2E2E2E2E2E2E2E2E2E2E2E2E2E2E2F5E2E2E2E2E2E2E2E2E2E2E2E2E2E2E2E2E2E2E2E2E2E2E2E2E2E2E2E2E2E2E2E2E2E2E2E2E2E2E2E2F50FF5E2E2F5F5F5E2
310
0FE2F5E2E2E2E2E2E2E2E2E2E2E2E2E2E2F5E2E2E2E2E2E2E2E2E2E2E2F5E2E2E2E2E2E2F5E2E2E2E2E2E2E2E2E2E2E2E2E2E2E2E2E2E2E2E2F5E2E2E2E2E2E2E2E2E2E2E2E2E2E2E2E2E2E2E2F5E2E2E2E2E2E2E2E2F5E2E2E2E2E2E2E2E2E2E2E2E2E2E2E2E2E2E2E2E2E2E2E2E2E2E2E2E2E2E2E2E2E2E2E2E2E2E2E2E2
310
E2E2E2F5E2E2E2E2E2E2E2E2E2E2E2E2E2E2E2E2E2E2E2E2E2E2E2E2E2E2E2E2E2E2E2E2E2E2E2E2E2E2E2E2F50FF5E2E2F5F5F5E20FE2F5E2E2E2E2E2E2E2E2E2E2E2E2E2F5E2E2E2E2E2E2E2E2E2E2E2F5E2E2E2E2E2E2F5E2E2E2E2E2E2E2E2E2E2E2E2E2E2E2E2E2E2E2E2F5E2E2E2E2E2E2E2E2E2E2E2E2E2E2E2E2E2
310
E2E2E2F5E2E2E2E2E2E2E2E2F5E2E2E2E2E2E2E2E2E2E2E2E2E2E2E2E2E2E2E2E2E2E2E2E2E2E2E2E2E2E2E2E2E2E2E2E2E2E2E2E2E2E2F5E2E2E2E2E2E2E2E2E2E2E2E2E2E2E2E2E2E2E2E2E2E2E2E2E2E2E2E2E2E2E2E2E2E2E2E2E2E2E2E2E2F50FF5E2E2F5F5F5E20FE2F5E2E2E2E2E2E2E2E2E2E2E2E2E2F5E2E2E2E2
310
E2E2E2E2E2E2E2F5E2E2E2E2E2E2F5E2E2E2E2E2E2E2E2E2E2E2E2E2E2E2E2E2E2E2E2F5E2E2E2E2E2E2E2E2E2E2E2E2E2E2E2E2E2E2E2E2F5E2E2E2E2E2E2E2E2F5E2E2E2E2E2E2E2E2E2E2E2E2E2E2E2E2E2E2E2E2E2E2E2E2E2E2E2E2E2E2E2E2E2E2E2E2E2E2E2E2E2E2F5E2E2E2E2E2E2E2E2E2E2E2E2E2E2E2E2E2E2
310
E2E2E2E2E2E2E2E2E2E2E2E2E2E2E2E2E2E2E2E2E2E2E2F50FF5E2E2F5F5F5E20FE2F5E2E2E2E2E2E2E2E2E2E2E2E2E2F5E2E2E2E2E2E2E2E2E2E2E2F5E2E2E2E2E2F5E2E2E2E2E2E2E2E2E2E2E2E2E2E2E2E2E2E2E2E2E2F5E2E2E2E2E2E2E2E2E2E2E2E2E2E2E2E2E2E2E2E2F5E2E2E2E2E2E2E2E2F5E2E2E2E2E2E2E2E2
310
E2E2E2E2E2E2E2E2E2E2E2E2E2E2E2E2E2E2E2E2E2E2E2E2E2E2E2E2E2E2E2E2E2E2F5E2E2E2E2E2E2E2E2E2E2E2E2E2E2E2E2E2E2E2E2E2E2E2E2E2E2E2E2E2E2E2E2E2E2E2E2E2E2E2E2E2F50FF5E2E2F5F5F5E20FE2F5E2E2E2E2E2E2E2E2E2E2E2E2E2F5E2E2E2E2E2E2E2E2E2E2E2F5E2E2E2E2F5E2E2E2E2E2E2E2E2
310
E2E2E2E2E2E2E2E2E2E2E2E2E2E2F5E2E2E2E2E2E2E2E2E2E2E2E2E2E2E2E2E2E2E2F5E2E2E2E2E2E2E2E2F5E2E2E2E2E2E2E2E2E2E2E2E2E2E2E2E2E2E2E2E2E2E2E2E2E2E2E2E2E2E2E2E2E2E2E2E2E2E2E2E2E2E2E2F5E2E2E2E2E2E2E2E2E2E2E2E2E2E2E2E2E2E2E2E2E2E2E2E2E2E2E2E2E2E2E2E2E2E2E2E2E2E2E2
310
E2E2F50FF5E2E2F5F5F5E20FE2F5E2E2E2E2E2E2E2E2E2E2E2E2F5E2E2E2E2E2E2E2E2E2E2E2F5E2E2E2E2E2F5E2E2E2E2E2E2E2E2E2E2E2E2E2E2E2E2E2E2E2E2E2E2F5E2E2E2E2E2E2E2E2E2E2E2E2E2E2E2E2E2E2E2F5E2E2E2E2E2E2E2E2F5E2E2E2E2E2E2E2E2E2E2E2E2E2E2E2E2E2E2E2E2E2E2E2E2E2E2E2E2E2E2
310
E2E2E2E2E2E2E2E2E2E2E2E2F5E2E2E2E2E2E2E2E2E2E2E2E2E2E2E2E2E2E2E2E2E2E2E2E2E2E2E2E2E2E2E2E2E2E2E2E2E2E2E2E2E2E2F50FF5E2E2F5F5F5E20FE2F5E2E2E2E2E2E2E2E2E2E2E2E2F5E2E2E2E2E2E2E2E2E2E2E2F5E2E2E2E2F5E2E2E2E2E2E2E2E2E2E2E2E2E2E2E2E2E2E2E2E2E2E2E2F5E2E2E2E2E2E2
310
E2E2E2E2E2E2E2E2E2E2E2E2E2F5E2E2E2E2E2E2E2E2F5E2E2E2E2E2E2E2E2E2E2E2E2E2E2E2E2E2E2E2E2E2E2E2E2E2E2E2E2E2E2E2E2F5E2E2E2E2E2E2E2E2E2F5E2E2E2E2E2E2E2E2E2E2E2E2E2E2E2E2E2E2E2E2E2E2E2E2E2E2E2E2E2E2E2F5E2E2E2E2E2E2E2E2E2E2F50FF5E2E2F5F5F5E20FE2F5E2E2E2E2E2E2E2
310
E2E2E2E2E2F5E2E2E2E2E2E2E2E2E2E2E2F5E2E2E2E2F5E2E2E2E2E2E2F5E2E2E2E2E2E2E2E2E2E2E2F5E2E2E2F5E2E2E2E2E2E2F5E2E2E2E2E2E2E2E2E2E2E2E2E2F5E2E2E2E2E2E2E2F5E2E2E2E2E2E2E2E2E2E2E2E2E2E2E2E2E2E2E2E2E2E2E2E2E2E2E2E2E2E2E2E2E2F5E2E2E2E2E2E2E2E2E2F5E2E2E2E2E2E2E2E2
310
E2E2E2E2E2E2E2E2E2E2E2E2E2E2E2E2E2E2E2E2E2E2E2F5E2E2E2E2E2E2E2E2E2E2F50FF5E2E2F5F5F5E20FE2F5E2E2E2E2E2E2E2E2E2E2E2E2F5E2E2E2E2E2E2E2E2E2E2E2F5E2E2E2F5E2E2E2E2E2E2E2F5E2E2E2E2E2E2E2E2E2E2E2F5E2E2E2F5E2E2E2E2E2E2F5E2E2E2E2E2E2E2E2E2E2E2E2F5E2E2E2E2E2E2E2E2
310
F5E2E2E2E2E2E2E2E2E2E2E2E2E2E2E2E2E2E2E2E2E2E2E2E2E2E2E2E2E2E2E2E2E2F5E2E2E2E2E2E2E2E2E2F5E2E2E2E2E2E2E2E2E2E2F5E2E2E2E2E2E2E2E2E2E2E2E2E2E2E2E2E2E2E2E2F5E2E2E2E2E2E2E2E2E2E2F50FF5E2E2F5F5F5E20FE2F5E2E2E2E2E2E2E2E2E2E2E2F5E2E2E2E2E2E2E2E2E2E2E2F5E2E2E2E2
310
F5E2E28E8E8E8E8E8E8E8E8E8E8EE2E2E2E2E2E2F5E2E2E2F5E2E28E8E8E8E8E8E8E8E8E8EE2E2E2E2E2E2E2F5E2E2E2E2E2E2E2E2F5E2E2E2E2E2E2E2E2E2E2E2E2E2E2E2E2E2E2E2E2E2E2E2E2E2E2E2E2E28E8E8E8E8E8E8E8E8E8E8EE2E2F5E2E2E2E2E2E2E2E2E2E2E2F5E2E2E2E2E2E2E2E2E2E2E2E2E2E28E8E8E8E
310
8E8E8E8E8E8E8E8EE2E2E2E2E2F50FF5E2E2F5F5F5E20FE2F5E2E2E2E2E2E2E2E2E2E2E2F5E2E2E2E2E2E2E2E2E2E27CF5EF7CEFF57CEF8E8E8E8E8E8E8E8E8E8EEF8E8EEFEFEF8EEFF5EF8EEFF5EF8E8E8E8E8E8E8E8E8E8E8E8E7C7C7C7C7C7CF57CE2E2E2E2E2E2E2F5E2E2E2E2E2E2E2E2E2E2E2E2E2E2E2E2E2E2E2E2
310
E2E2E2E2E2E2E2E2E28EE2E2E2F5E2E2E2E2E28E8E8EF58E8E8E8E8E8E8E8E8E8E8EF58E8E8E8E8E8E8E8E8E8E8E8E8E8E8EE2E2E2E2E2F5E2E2E2E28EE2E2E2E2E2F50FF5E2E2F5F5F5E20FE2F5E2E2E2E2E2E2E29C9C9CF5F59C9C9C9C9C9C9C9C9CEFF5F5E2EFE2F5EF7CE2EFEFEFE2EFF5EF8EEFEFEFEFE2EFEFEFE2F5
310
EFEFE2F5EFEFE2EF8EE2F5EFEFEFE2EFEF7CEFEFE2EFF56A6A7C9C9C9C9C9CF59C9C9C9C9C9C9C9CE2E2E2E2E2E2E2E2E2E2E2E2E2E2E2E2E2E2E2E2E2E28EE2E2E2F5E2E2E2E2E2E2E2E2F5E2E2E2E2E29C9C9CE29C9CF59C9C9CE29C9CE2E2E2E2E2E2E2E2E2E2E2E2E2E2F5E2E2E2E28EE2E2E2E2E2F50FF5E2E2F5F5F5
310
E20FE2F5E2E2E2E2E2E29C9CE2E2E2E2E2E2E2E2E2E2E2E2E27CEF7CEF7CEFE2EFEF7CEF7C8E8E8E8E8EEFEFEFE2EFEFEFE2EFEFF5EFE2F5EFEFE2EFEFE28E8E8E8E8E7C7C7C7CE2EF7C7CF57C7C7CE2E2E2E2E2F5E2E2E2E2E2E2E29C9CE2E2E2E2E2E2E2E2E2E2E2E2E2E2E2E2E2E2E2E2E28EE2E2E2F5E2E2E2E2E2E29C
310
9CF59C9C9C9C9C9C9C9C9CE2E2F5E2E2E29C9C9C9C9C9C9C9C9C9C9C9CE2E2E2E2E2F5E2E2E2E28EE2E2E2E2E2F50FF5E2E2F5F5F5E20FE2F5E2E2E2E2E2E29CE2E2E2E2E2E2E29E9E9E9E9E9EE27CE2E2E2E2E27CEFE2EF7CEFE28EE2F58E8E8EEFEF8EEFEFEF8EEFF5EFEFF5EFEFEF8E8E8E8EF5E28EE27C7C7C7CEF7C7C
310
E2F5E2E27CE29E9E9E9EF59EE2E2E2E2E2E2E29CE2E2E2E2E2E2E2E2E2E2E2E2E2E2E2E2E2E2E2E2E28EE2E2E2F5E2E2E2E2E2F5F5F5F5E2E2E29C9CE2E2E2E2E2E2F5E2E2E2E2E2E2E29C9CE2E2F5F5F5F59CE2E2E2E2F5E2E2E2E28EE2E2E2E2E2F50FF5E2E2F5F5F5E20FE2F5E2E2E2E2E2E29CE2E2E2E2E2E2E29EE2E2
310
F5E29EE27CE2E2E2E2E2EFE2EFE28E7C8E8E8E8E8E8E8EE2E2E2E2E2E2E2E2F5E2E2F5E2E2E2E28E8E8E8E8E8E8E7C8EE27CEF7CE2E2F5E2E27CE29EE2E2F5F59EE2E2E2E2E2E2E29CE2E2E2E2E2E2E2E2E2E2E2E2E2E2E2E2E2E2E2E2E28EE2E2E2F5E2E2E2E29CF5F5F5F5E2E29CE2E2E2E2E2E2E2E2F5E2E2E2E2E2E2E2
310
E2E29CE2E2F5F5F59CE2E2E2E2F5E2E2E2E28EE2E2E2E2E2F50FF5E2E2F5F5F5E20FE2F5E2E2E2E2E2E29CE2E2E2E2E2E2E29EE2E2F5E29EE27CE2E2E2E2E27CEF7C8EEFEFEFEFEFF5EF8E8EE2E2E2E2E2E2E2E2F5E2E2F5E2E2E2E28E8EEFF5EFEFEFEFEF8E7CE27CE2F5E2E2E27CE29EE2E2F5E29EE2E2E2E2E2E2E2EF9C
310
E2E2E2E2E2E2E2E2E2E2E2E2E2E2E2E2E2E2E2E28EE2E2E2F5E2E2E2E29CF5F5F5F5E29CE2E2E2E2E2E2E2E2E2F5E2E2E2E2E2E2E2E2E2E29CF5F5F5F59CE2E2E2E2F5E2E2E2E28EE2E2E2E2E2F50FF5E2E2F5F5F5E20FE2F5E2E2E2E2E29C9CE2E2E2E2E2E2E29EE2E2F5E29EE27CE2E2E2E2E2EFE2EF8EEFEFEFEFEFEFEF
310
8E8EE2E2E2E2E2E2E2E2F5E2E2F5E2E2E2E28E8EEFEFEFEFEFEFEF8E7CEF7CE2F5E2E2E27CE29EE2E2F5F59EE2E2E2E2E2E2E2EF9CE2E2E2E2E2E2E2E2E2E2E2E2E2E2E2E2E2E2E2E28EE2E2E2F5E2E2E2E29CF5F5F5F59CE2E2E2E2E2E2E2E2E2E2F5E2E2E2E2E2E2E2E2E2E2E29CF5F5F59CE2E2E2E2F5E2E2E2E28EE2E2
310
E2E2E2F50FF5E2E2F5F5F5E20FE2F5E2E2E2E2E29C9CE2E2E2E29EEFEF9EE2E2F5E29EE27CE2E2E2E2E2EFEFEF8EEFE2EFEFEFEFEFEF8E8E8E8E8E8E8E8E8EF58EF58E8E8E8E8E8E8EEFEFE2EFEFEFEF8E7CEF7CE2F5E2E2E27CE29EE2E2F5E29E9E9E9EE2E2E2E2E29CE2E2E2E2E2E2E2E2E2E2E2E2E2E2E2E2E2E2E2E28E
310
E2E2E2F5E2E2E2E29CE2E2E29CF5E2E2E2E2E2E2E2E2E2E2F5E2E2E2E2E2E2E2E2E2E2E2F5E29CE29CE2E2E2E2F5E2E2E2E28EE2E2E2E2E2F50FF5E2E2F5F5F5E20FE2F5E2E2E2E2E29C9CE2E2E2E2EFEFE2EFE2E2F5E29EE27CE2E2EF7CEF7CEF7C8E8EEFEFEFEFEFEFEFEFEFEFEFEFEFEFEFEFF5EFF5EFEFEFEFEFEFEFEF
310
EFEFEFEFEFEF8E7CEFE27CF57C7CE27CE29EE2E2F5E29E9EEF9EE2E2E2E2E29CE2E2E2E2E2E2E2E2E2E2E2E2E2E2E2E2E2E2E2E28EE2E2E2F5E2E2E2E29CE2E29CE2E2E2E2E2E2E2E2E2E2E2E2F5E2E2E2E2E2E2E2E2E2E2E2E2E29CE2E29CE2E2E2F5E2E2E2E28EE2E2E2E2E2F50FF5E2E2F5F5F5E20FE2F5E2E2E2E2E29C
310
9CE2E2E2E2EFE2EFEFE2E2F5E29EE27CE2EFE2EFE2EFE2EF7CEF7C8E8E8E8E8E8E8EEFEFEFEFEFEFEFEFEFEFEFEFEFEFEFEFEF8E8E8E8E8E8E7C7C7C7CEFEFF5EFE2EF7C7CE29EE2E2F5E29E9EEF9EE2E2E2E2E29CE2E2E2E2E2E2E2E2E2E2E2E2E2E2E2E2E2E2E2E28EE2E2E2F5E2E2E2E29CE29CE2E2E2E2E2E2E2E2E2E2
310
E2E2E2F5E2E2E2E2E2E2E2E2E2E2E2E2E2E29CE29CE2E2E2F5E2E2E2E28EE2E2E2E2E2F50FF5E2E2F5F5F5E20FE2F5E2E2E2E2E29CE2E2E2E2E29EEFEFEFE2E2F5E29EE27CE27CEF7CEF7CEF7CEF7CEFE2E2E2E28EEFEFEFEFEFEFEFEFEFEFEFEFEFEFEFEFEFEFEFEF8EE2E2E2E27C7C7C7C7C7CF5F57C7C7C7CE29EE2E2F5
310
E29E9EEF9EE2E2E2E2E29C9CE2E2E2E2E2E2E2E2E2E2E2E2E2E2E2E2E2E2E28EE2E2E2F5E2E2E2E29C9CE2E2E2E2E2E2E2E2E2E2E2E2E2E2F5E2E2E2E2E2E2E2E2E2E2E2E2E2E29CE29CE2E2E2F5E2E2E2E28EE2E2E2E2E2F50FF5E2E2F5F5F5E20FE2F5E2E2E2E2E29CE2E2E2E2E2EFEFEF9EE2E2F5E29EE27CEF7C7C8989
310
8989E226EF7CE2E2E2E28EEFEFEFEFEFEFEFE2E2E2F5E2F5EFEFEFEFEFEFEF8EE2E2E2E27C7CEFE2EFEFF5F5F57CF5F5E29EE2E2F5E29E9EEF9EE2E2E2E2E29C9CE2E2E2E2E2E2E2E2E2E2E2E2E2E2E2E2E2E2E28EE2E2E2F5E2E2E2E29C9CE2E2E2E2E2E2E2E2E2E2E2E2E2E2F5E2E2E2E2E2E2E2E2E2E2E2E2E2E2E29C9C
310
E2E2E2F5E2E2E2E28EE2E2E2E2E2F50FF5E2E2F5F5F5E20FE2F5E2E2E2E2EF9CE2E2E2E2E2EFEFE2EFE2EFF5E29EE27C7CEF7CE2E28989E226EF7CE2E2E2E28EEFEFEFEFEFEFE2E2E2E2F5E2F5E2EFEFEFEFEFEF8EE2E2E2E27C7CEFE28989E2E2897CE27CE29EE2F5EFE29E9EEF8989E2E2E2E29C9CE2E2E2E2E2E2E2E2E2
310
E2E2E2E2E2E2E2E2E2E28EE2E2E2F5E2E2E29C9CE2E2E2E2E2E2E2E2E2E2E2E2E2E2E2F5E2E2E2E2E2E2E2E2E2E2E2E2E2E2E29CE29CE2E2F5E2E2E2E28EE2E2E2E2E2F50FF5E2E2F5F5F5E20FE2F5E2E2E2E2EF9CE2E2E2EFEFEFEFEFEFEFE2EFEFF5E27CEF7C7CE2E28989E226EF7CE2E2E2E28EEFEFEFEFEFEFE2E2E2E2
310
F5F5E2E2E2EFEFEFEFEF8EE2E2E2E27C7CEFE289EFE2E2897CEF7CE2EFEFEFF5EFEF9EEF8989EFEFE2E29C9CE2E2E2E2E2E2E2E2E2E2E2E2E2E2E2E2E2E2E28EE2E2E2F5E2E2E29C9CE2E2E2E2E2E2E2E2E2E2E2E2E2E2E2F5E2E2E2E2E2E2E2E2E2E2E2E2E2E2E2E29C9CE2E2F5E2E2E2E28EE2E2E2E2E2F50FF5E2E2F5F5
310
F5E20FE2F5E2E2E2E2EF9CE2E2E2EFEFEFEFEFEFE2EFEFEFEFE27C7CEF7C898989892626EF7CE2E2E2E28EEFEFEFEFE2E2E2E2E2E2F5F5E2E2E2E2EFEFEFEF8EE2E2E2E27C7CEFEFEF89EFEFEF7CEF7CE29EE2EFEFE2EF89898989EFEFE2E2E29CE2E2E2E2E2E2E2E2E2E2E2E2E2E2E2E2E2E2E28EE2E2E2F5E2E2E29C9CE2
310
E2E2E2E2E2E2E2E2E2E2E2E2E2E2F5E2E2E2E2E2E2E2E2E2E2E2E2E2E2E2E29C9CE2E2F5E2E2E2E28EE2E2E2E2E2F50FF5E2E2F5F5F5E20FE2F5E2E2E2E29C9CE2E2E2EFEFEFEFEFEFEFEFEFEFEFEFEFEF7C7C89898989EFEF267C262626268E2626EF26262626262626F5F52626262626EF26268E262626267C7C262689EF
310
EFEFEF7CEFEFEFEFEFEFEFEFEF89EFEFEFEFEFE2E2E29CE2E2E2E2E2E2E2E2E2E2E2E2E2E2E2E2E2E2E28EE2E2E2F5E2E29CE29CE2E2E2E2E2E2E2E2E2E2E2E2E2E2E2F5E2E2E2E2E2E2E2E2E2E2E2E2E2E2E2E2E29CE2E2F5E2E2E2E28EE2E2E2E2E2F50FF5E2E2F5F5F5E20FE2F5E2E2E2E29C9CF5F5F5EFEFEFEFEFEFEF
310
EFEFEFEFEFEFF5EFE2E2E2E2E2E2E226E2E2E2E2E2E2E226EFEFEFEFEFEFEFEFF5F5EFEFEFEFEFEFEF26E2E2E2E2E2E226E2E2E2E2E2E2E2E2F5EFEFEFEFEFEFEFE2EFEFEFEFEFF5F5F5E29CE2E2E2E2E2E2E2E2E2E2E2E2E2E2E2E2E2E2E28EE2E2E2F5E2E29C9CE2E2E2E2E2E2E2E2E2E2E2E2E2E2E2E2F5E2E2E2E2E2E2
310
E2E2E2E2E2E2E2E2E2E2E29CE2E2F5E2E2E2E28EE2E2E2E2E2F50FF5E2E2F5F5F5E20FE2F5E2E2E2E29C9CF5F5E2F5EFEFEF0FEFEFEF0FEFEFEFEFEFEFEFE2E2E2E2E2E226E2E2E2E2E2E2E226EFEFEFEFEFEFEFEFF5EFEFEFEFEFEFEFEF26E2E2E2E2E2E226E2E2E2E2E2E2E2F5EFEFEFEFEFEFEFF5EFEFEFF5EFF5F5F5F5
310
E29CE2E2E2E2E2E2E2E2E2E2E2E2E2E2E2E2E2E2E28EE2E2E2F5E2E29C9CE2E2E2E2E2E2E2E2E2E2E2E2E2E2E2E2F5E2E2E2E2E2E2E2E2E2E2E2E2E2E2E2E2E29CE2E2F5E2E2E2E28EE2E2E2E2E2F50FF5E2E2F5F5F5E20FE2F5E2E2E2E29C9CF5F5F5F5F5F5F5F5F5F5F5F5F5F5F5F5EFEFF5F5F5F5F5F5F5F5F5F5E2E2F5
310
F5F5F5F5F5F5F5F5F5F5F5F5F5F5F5F5F5F5F5F5F5F5F5F5F5F5F5F5F5F5F5F5F5F5F5EFEFF5F5F5F5F5F5F5F5F5F5F5F5F5F5F5F5F59CE2E2E2E2E2E2E2E2E2E2E2E2E2E2E2E2E2E2E28EE2E2E2F5F5F5F5F5F5F5F5F5F5F5F5F5F5F5F5F5F5F5F5F5F5F5F5F5F5F5F5F5F5F5F5F5F5F5F5F5F5F5F5F5F5F5E2E2E2E28EE2
310
E2E2E2E2F50FF5E2E2F5F5F5E20FE2F5E2E2E2E29C9CF5F5F5F5F53D0F0F0FEF0FEFEFEFEFEFEFEFF5E2E2E2E2E2E226E2E2E2E2E2E2E226EFEFEFEFEFEFEFEFF5EFEFEFEFEFEFEFEF26E2E2E2E2E2E226E2E2E2E2E2E2E2EFEFEF26EFEFEFEF26F5F5F5F53DF5F5F5F5E29CE2E2E2E2E2E2E2E2E2E2E2E2E2E2E2E2E2E2E2
310
8EE2E2E2F5E2E29C9CE2E2E2E2E2E2E2E2E2E2E2E2E2E2E2E2F5E2E2E2E2E2E2E2E2E2E2E2E2E2E2E2E2E29CE2E2F5E2E2E2E28EE2E2E2E2E2F50FF5E2E2F5F5F5E20FE2F5E2E2E2E29C9CF5F5F5EFEFEFEF26EFEFEFEFEFEFE2EFEFF5E2E2E2E2E2E2E226E2E2E2E2E2E2E226EFEFEFEFEFEFEFEFF5EFEFEFEFEFEFEFEF26
310
E2E2E2E2E2E226E2E2E2E2E2E2E2EFE2EFEFEFEFEFE226EFEFEF263DEFF5F5F5E29CE2E2E2E2E2E2E2E2E2E2E2E2E2E2E2E2E2E2E28EE2E2E2F5E2E29C9CE2E2E2E2E2E2E2E2E2E2E2E2E2E2E2E2F5E2E2E2E2E2E2E2E2E2E2E2E2E2E2E2E2E29CE2E2F5E2E2E2E28EE2E2E2E2E2F50FF5E2E2F5F5F5E20FE2F5E2E2E2E29C
310
9CE2E2E2EFEFEFEFEFEFEFE2EFEFEFEFE2EFF5E2E2E2E2E2E2E226E2E2E2E2E2E2E226EFEFEFEFEFEFEFEFF5EFEFEFEFEFEFEFEF26E2E2E2E2E2E226E2E2E2E2E2E2E2E2EFEFEFE2EFEFEFEFEFEFEFEF3DEFEFE2E2E29CE2E2E2E2E2E2E2E2E2E2E2E2E2E2E2E2E2E2E28EE2E2E2F5E2E29C9CE2E2E2E2E2E2E2E2E2E2E2E2
310
E2E2E2E2F5E2E2E2E2E2E2E2E2E2E2E2E2E2E2E2E2E29CE2E2F5E2E2E2E28EE2E2E2E2E2F50FF5E2E2F5F5F5E20FE2F5E2E2E2E29C9CE2E2E2EFEFEFEFEFEF9EEFEFEFEF26EFEF7C7C89898989EFEF267C262626268E2626EFEF262626262626F52626262626EFEF26268E262626267C7C2626EFEFEFEFEF7CEFEF26EFEFEF
310
EFEFEFEF89EF3DEFEFE2E2E29CE2E2E2E2E2E2E2E2E2E2E2E2E2E2E2E2E2E2E28EE2E2E2F5E2E29CE29CE2E2E2E2E2E2E2E2E2E2E2E2E2E2E2F5E2E2E2E2E2E2E2E2E2E2E2E2E2E2E2E2E29CE2E2F5E2E2E2E28EE2E2E2E2E2F50FF5E2E2F5F5F5E20FE2F5E2E2E2E2EF9CE2E2E2EFEFEFEFEFEFEFEFEFE2EFE27C7CEF7C89
310
8989892626EF7CE2E2E2E28EEFEFEFEFEFE2E2E2E2E2F5E2E2E2E2EFEFEFEFEF8EE2E2E2E27C7CEFEFEFEFEFEFEF7CE27CE2EFE2EFEFEFEF9EE2893DEFEFE2E2E29CE2E2E2E2E2E2E2E2E2E2E2E2E2E2E2E2E2E2E28EE2E2E2F5E2E2E29C9CE2E2E2E2E2E2E2E2E2E2E2E2E2E2E2F5E2E2E2E2E2E2E2E2E2E2E2E2E2E2E2E2
310
9C9CE2E2F5E2E2E2E28EE2E2E2E2E2F50FF5E2E2F5F5F5E20FE2F5E2E2E2E2EF9CE2E2E2EFEF3DEFE2EFEF9EEFEF9EE27CEF7C7CE2E28989E226EF7CE2E2E2E28EEFEFEFEFEFEFE2E2E2E2F5E2E2E2EFEFEFEFEFEF8EE2E2E2E27C7CEFE28989E2E2897CEF7CE29EEFEF9EEF9E9EEF893DEFEFE2E29C9CE2E2E2E2E2E2E2E2
310
E2E2E2E2E2E2E2E2E2E2E28E8E8E8E8E8E8E8E8E9CE2E2E2E2E2E2E2E2E2E2E2E2E2E2E2F5E2E2E2E2E2E2E2E2E2E2E2E2E2E2E2E28E8E8E8E8E8E8E8E8E8EE2E2E2E2E2F50FF5E2E2F5F5F5E20FE2F5E2E2E2E2E29CE2E2E2E2E2EF9EEFEFE2E2E2E2E2E27C7CEF7C89898989E226EF7CE2E2E2E28EEFEFEFEFEFEFEFE2E2
310
E2F5E2E2E2EFEFEFEFEFEF8EE2E2E2E27C7CEFE2EFEFEFEFEF7CEF7CE2E2E2E2E2E2899E9E8989E2E2E2E29C9CE2E2E2E2E2E2E2E2E2E2E2E2E2E2E2E2E2E2E2E28E8E8E8E8E8E8E8E9CE2E2E2E2E2E2E2E2E2E2E2E2E2E2E2F5E2E2E2E2E2E2E2E2E2E2E2E2E2E2E29CE28E8E8E8E8E8E8E8EE2E2E2E2E2E2F50FF5E2E2F5
310
F5F5E20FE2F5E2E2E2E2E29CE2E2E2E2E2E2E2E2E2E2E2E2E2E2E27CEF7C7CEFEFEF89E226267CE2E2E2E28EEF8EEFEFEFEFEFEFEFEFEFEFEFEFEFEFEFEF8EEF8EE2E2E2E27C7CEFE2EFEFEFEFEF7CEF7CE2E2E2E2E2E2E2E2E2E2E2E2E2E2E29C9CE2E2E2E2E2E2E2E2E2E2E2E2E2E2E2E2E2E2E2E2E2E2E2F5E2E2E2E29C
310
9CE2E2E2E2E2E2E2E2E2E2E2E2E2E2F5E2E2E2E2E2E2E2E2E2E2E2E2E2E2E29C9CE2E2E2F5E2E2E2E2E2E2E2E2E2E2F50FF5E2E2F5F5F5E20FE2F5E2E2E2E2E29C9CE2E2E2E2E2E2E2E2E2E2E2E2E2E27CE2EF7CEFEF7CEF7CEFEF7CE2E28E8E8E8E8EEFEFEFEFEFEFEFEFEFEFEFEFEFEFEFEF8E8E8E8E8EEFE27C7C7C7C7C
310
7C7C7C7C7C7C7CE2E2E2E2E2E2E2E2E2E2E2E2E2E2E29C9CE2E2E2E2E2E2E2E2E2E2E2E2E2E2E2E2E2E2E2E2E2E2E2F5E2E2E2E29C9CE2E2E2E2E2E2E2E2E2E2E2E2E2E2F5E2E2E2E2E2E2E2E2E2E2E2E2E2E29CE29CE2E2E2F5E2E2E2E2E2E2E2E2E2E2F50FF5E2E2F5F5F5E20FE2F5E2E2E2E2E29C9CE2E2E2E2E2E2E2E2
310
E2E2E2E2E2E27CE2E2EFE2EFEFEFEFEF8E7C8E8EEFEFEFEFE2EFEFEFEFEFEFE2EFF5EFEFEFEFE2EFEFEFEFEFEFE28E8E7C8EEF7CEFEFE2EFE2EF7C7CE2E2E2E2E2E2E2E2E2E2E2E2E2E2E29CE2E2E2E2E2E2E2E2E2E2E2E2E2E2E2E2E2E2E2E2E2E2E2E2F5E2E2E2E29CE29CE2E2E2E2E2E2E2E2E2E2E2E2E2F5E2E2E2E2E2
310
E2E2E2E2E2E2E2E2E29CE29CE2E2E2F5E2E2E2E2E2E2E2E2E2E2F50FF5E2E2F5F5F5E20FE2F5E2E2E2E2E29C9CE2E2E2E2E2E2E2E2E2E2E2E2E2E27CE2E27CEF7CEFE2EF8EEFEFEFEFEFEFEFEFEFEFEFEFEFEFEFEFEFF5EFEFEFEFEFEFEFEFEFEFEFEFEFEFEFEF8E7CEFE27C7C7C7CE27CE2E2E2E2E2E2E2E2E2E2E2E2E2E2
310
E29CE2E2E2E2E2E2E2E2E2E2E2E2E2E2E2E2E2E2E2E2E2E2E2E2E2E2E2E2E29CE2E29CE2E2E2E2E2E2E2E2E2E2E2E2F5E2E2E2E2E2E2E2E2E2E2E2E2E29CE2E29CE2E2E2E2E2E2E2E2E2E2E2E2E2E2F50FF5E2E2F5F5F5E20FE2F5E2E2E2E2E29C9CE2E2E2E2E2E2E2E2E2E2E2E2E2E27CE2E2E2E2E27CEF7C8EEFEFEFEFEF
310
EFEF8E8E8E8E8E8E8E8E8E8EF58E8E8E8E8E8E8E8E8EEFEFEFEFEFEFEF8E7CE27CE2E2E2E2E27CE2E2E2E2E2E2E2E2E2E2E2E2E2E2E29CE2E2E2E2E2E2E2E2E2E2E2E2E2E2E2E2E2E2E2E2E2E2E2E2E2E2E2E2E29CF5E2F59CF5E2E2E2E2E2E2E2E2E2E2F5E2E2E2E2E2E2E2E2E2E2E2F5E2F5F59CE2E2E2E2E2E2E2E2E2E2
310
E2E2E2E2E2F50FF5E2E2F5F5F5E20FE2F5E2E2E2E2E29C9CE2E2E2E2E2E2E2E2E2E2E2E2E2E27CE2E2E2E2E2EFE2EF8EEFEFEFEFEFEFEF8E8EE2E2E2E2E2E2E2E2F5E2E2E2E2E2E2E28E8EEFEFEFEFEFEFEF8E7CEF7CE2E2E2E2E27CE2E2E2E2E2E2E2E2E2E2E2E2E2E2EF9CE2E2E2E2E2E2E2E2E2E2E2E2E2E2E2E2E2E2E2
310
E2E2E2E2E2E2E2E2E2E29CF5F5F5F5E2E2E2E2E2E2E2E2E2E2E2F5E2E2E2E2E2E2E2E2E2E2E2E2F5F5F59CE2E2E2E2E2E2E2E2E2E2E2E2E2E2E2F50FF5E2E2F5F5F5E20FE2F5E2E2E2E2E2E29CE2E2E2E2E2E2E2E2E2E2E2E2E2E27CE2E2E2E2E27CEF7C8E8EEFEFEFEFEFEF8E8EE2E2E2E2E2E2E2E2F5E2E2E2E2E2E2E28E
310
8EEFEFEFEFEFEF8E8E7CEF7CE2E2E2E2E27CE2E2E2E2E2E2E2E2E2E2E2E2E2E29C9CE2E2E2E2E2E2E2E2E2E2E2E2E2E2E2E2E2E2E2E2E2E2E2E2E2E2E2E2E29CF5F5F5F59C9CE2E2E2E2E2E2E2E2E2F5E2E2E2E2E2E2E2E2E2E29CF5F5F5F5F5E2E2E2E2E2E2E2E2E2E2E2E2E2E2E2F50FF5E2E2F5F5F5E20FE2F5E2E2E2E2
310
E2E29CE2E2E2E2E2E2E2E2E2E2E2E2E2E27CE2E2E2E2E2EFE2EF7CEF7C8E8E8E8E8E8E8EE2E2E2E2E2E2F5E2F5E2E2E2F5E2E2E28E8ED88ED88E8E7C8EE27CE27CE2E2E2E2E27CE2E2E2E2E2E2E2E2E2E2E2E2E2E29CE2E2E2E2E2E2E2E2E2E2E2E2E2E2E2E2E2E2E2E2E2E2E2E2E2E2E2E2E2E29CF5F5F5F5E2E29C9CE2E2
310
E2E2E2E2E2F5E2E2E2E2E2E2E2E29C9CE2F5F5F5F59CE2E2E2E2E2E2E2E2E2E2E2E2E2E2E2F50FF5E2E2F5F5F5E20FE2F5E2E2E2E2E2E29CEFE2E2E2E2E2E2E2E2E2E2E2E2E2EF7CEF7CEF7CEFEFE2EF7CEFE28EE2E28E8E8EEFEFEF8EEF8E8E8EF5EFEFF5F58E8E8E8E8ED8D8E28EE27C7C7CE2EFE27C7C7C7C7C7CE2E2E2
310
E2E2E2E2E2E2E2E2E2E2E29CE2E2E2E2E2E2E2E2E2E2E2E2E2E2E2E2E2E2E2E2E2E2E2E2E2E2E2E2E2E2E2F59C9C9C9C9C9C9C9C9CE2E2E2E2E2F5E2E2E2E2E2E29C9C9C9C9C9C9C9C9CF5E2E2E2E2E2E2E2E2E2E2E2E2E2E2E2F50FF5E2E2F5F5F5E20FE2F5E2E2E2E2E2E29C9C9CEFEFEFEFEFEFEFEFEFEFEFEF7CEF6AEF
310
E2EFE2EFEF7CEF7C8E8E8E8E8EEFEFE2EFEFEFE2F5F5EFF5EFEFF5F5F5EFEF8ED8E2D88E8E8E7C7C7C7CEFEFEFEFE26A6A7C9C9C9C9C9C9C9C9C9C9C9C9C9C9C9CE2E2E2E2E2E2E2E2E2E2E2E2E2E2E2E2E2E2E2E2E2E2E2E2E2E2E2E2E2E2E2E2E2E28EE2E2E29C9CE29C9C9C9CE2F5E29C9C9C9C9C9C9CE2E2E28EE2E2E2
310
E2E2E2E2E2E2E2E2E2E2E2E2E2E2E2E2F50FF5E2E2F5F5F5E20FE2F5E2E2E2E2E2E2E2E29CEFEFEFEFEFEFEFEFEFEFEFEFEF6A6A7CEF7CEF7CEF8E8E8EEFEFEFEFEFE2EFF5EFD8D88EF5F5EFF58EEFF5F5D8D8D8D8E2D88EEFEF8E8E8E8E7C7C7C7C7C7C6A6A9C9C9C9C9C9C9C9C9C9C9C9C9C9CE2E2E2E2E2E2E2E2E2E2E2
310
E2E2E2E2E2E2E2E2E2E2E2E2E2E2E2E2E2E2E2E2E2E2E2E2E28EE2E2E2E2E29C9C8E8E9C9CF59C9C9C8E8EE2E2E2E2E2E28EE2E2E2E2E2E2E2E2E2E2E2E2E2E2E2E2E2E2E2F50FF5E2E2F5F5F5E20FE2F5E2E2E2E2E2E2E2E2E2E2E2E2E2E2E2E2E2E2E2E2E2E2E2E2E2E2E2E2E2E2E2D88E8EEFEFEFEFEFEFF5EFD8D8D8D8
310
F5D8F5D8D8D8F5D8D8D8D8D8D88E8E8EE2E2E2E2E2E2E2E2E2E2E2E2E2E2E2E2E2E2E2E2E2E2E2E2E2E2E2E2E2E2E2E2E2E2E2E2E2E2E2E2E2E2E2E2E2E2E2E2E2E2E2E2E2E2E2E2E2E2E2E2E2E28EE2E2E2E2E2E2E2E28ED88EF58ED88E8EE2E2E2E2E2E2E28EE2E2E2E2E2E2E2E2E2E2E2E2E2E2E2E2E2E2E2F50FF5E2E2
310
F5F5F5E20FE2F5E2E2E2E2E2E2E2E2E2E2E2E2E2E2E2E2E2E2E2E2E2E2D8D8D8D8D8D8D8D8D8D8E2D8D88EEFEFEFE2F5E2D8D8E2F5E2E2F5E2F5E2E2D8D8D8D8D88E8EE2E2E2E2E2E2E2E2E2E2E2E2E2E2E2E2E2E2E2E2E2E2E2E2E2E2E2E2E2E2E2E2E2E2E2E2E2E2E2E2E2E2E2E2E2E2E2E2E2E2E2E2E2E2E2E2E2E2E2E2
310
E2E2E2E28EE2E2E2E2E2E2E2E28ED8D8F5D8D8E28EE2E2E2E2E2E2E28EE2E2E2E2E2E2E2E2E2E2E2E2E2E2E2E2E2E2E2F50FF5E2E2F5F5F5E20FE2F5E2E2E2E2E2E2E2E2E2F5D8D8D8D8D8D8D8D8D8D8D8D8D8E2E2E2E2E2E2E2E2D8E2D8D88ED8D8D8D8D8D8D8D8D8D8D8D8F5D8D8D8D8D8D8D8D8D8D88EE2E2E2E2E2E2E2
310
E2E2E2E2E2E2E2E2E2E2E2E2E2E2E2E2E2E2E2E2E2E2E2E2E2E2E2E2E2E2E2E2E2E2E2E2E2E2E2E2E2E2E2E2E2E2E2E2E2E2E2E2E2E2E2E2E28EE2E2E2F5E2E2E2E2D8D8D8F5D8D8D88EE2E2E2F5E2E2E28EE2E2E2E2E2E2E2E2E2E2E2E2E2E2E2E2E2E2E2F50FF5E2E2F5F5F5E20FE2F5E2E2E2E2E2E2E2E2E2F5E2E2E2E2
310
E2E2E2E2E2E2E2E2EFE2E2E2E2E2E2E2E2D8E2D8D88E8EE28EE2F5E2D8D8D8D8D8E2F5D8D8D8D8D8D8D8D8D8D88EE2E2E2E2E2E2E2E2E2E2E2E2E2E2E2E2E2E2E2E2E2E2E2E2E2E2E2E2E2E2E2E2E2E2E2E2E2E2E2E2E2E2E2E2E2E2E2E2E2E2E2E2E2E2E2E2E2E2E2E2E2E2E2E2E28EE2E2F5E2E2E2E2D8D8D8F5D8D8D88E
310
E2E2E2F5E2E2E28EE2E2E2E2E2E2E2E2E2E2E2E2E2E2E2E2E2E2E2F50FF5E2E2F5F5F5E20FE2F5E2E2E2E2E2E2E2F5F5F5F5F5F5F5F5F5F5F5F5F5F5F5EFF5F5F5F5F5F5F5F5D8D8D8D88E8EF58EF5F5F5D8D8D8D8D8F5F5D8D8D8D8D8D8D8D8D8D88EF5F5F5F5E2E2E2E2E2E2E2E2E2E2E2E2E2E2E2E2E2E2E2E2E2E2E2E2
310
E2E2E2E2E2E2E2E2E2E2E2E2E2E2E2E2E2E2E2E2E2E2E2E2E2E2E2E2E2E2E2E2E2E2E2E2E28EE2E2F5E2E2F5F5F5F5F5F5F5F5F5F5F5F5E2F5E2E2E28EE2E2E2E2E2E2E2E2E2E2E2E2E2E2E2E2E2E2E2F50FF5E2E2F5F5F5E20FE2F5E2E2E2E2E2E2E2E2E2F5F5D8D8D8D8D8D8D8D8D8D8D8D8E2E2E2E2E2E2E2E2D8E2D8D8
310
8E8EE28EE2F5E2D8D8D8D8D8E2F5D8D8D8E2E2E2E2E2E28E8EE2E2E2E2E2E2E2E2E2E2E2E2E2E2E2E2E2E2E2E2E2E2E2E2E2E2E2E2E2E2E2E2E2E2E2E2E2E2E2E2E2E2E2E2E2E2E2E2E2E2E2E2E2E2E2E2E2E2E2E2E2E2E2E2E28EE2E2F5E2E2E2E2D8D8D8F5D8D8D88EE2E2E2F5E2E2E28EE2E2E2E2E2E2E2E2E2E2E2E2E2
310
E2E2E2E2E2E2F50FF5E2E2F5F5F5E20FE2F5E2E2E2E2E2E2E2E2E2E2E2E2E2E2E2E2E2E2E2E2E2E2D8D8D8D8D8E2E2E2E2D8E2D8D88ED8D8D8EFEFEFD8D8D8D8D8E2F5D8D8D8E2E2E2E2E2E28E8EE2E2E2E2E2E2E2E2E2E2E2E2E2E2E2E2E2E2E2E2E2E2E2E2E2E2E2E2E2E2E2E2E2E2E2E2E2E2E2E2E2E2E2E2E2E2E2E2E2
310
E2E2E2E2E2E2E2E2E2E2E2E2E2E2E2E28EE2E2F5E2E2E2E2D8D8D8F5D8D8D88EE2E2E2F5E2E2E28EE2E2E2E2E2E2E2E2E2E2E2E2E2E2E2E2E2E2E2F50FF5E2E2F5F5F5E20FE2F5E2E2E2E2E2E2E2E2E2E2E2E2E2E2E2E2E2E2E2E2E2E2E2E2E2E2E2D8D8D8D8D8D8D8EFEFE2EFD8D8F5D8D8D8D8D8D8EFF5D8D8D8D8D8D8D8
310
D8D8D88EE2E2E2E2E2E2E2E2E2E2E2E2E2E2E2E2E2E2E2E2E2E2E2E2E2E2E2E2E2E2E2E2E2E2E2E2E2E2E2E2E2E2E2E2E2E2E2E2E2E2E2E2E2E2E2E2E2E2E2E2E2E2E2E2E28EE2E2F5E2E2E2E28ED8D8F5D8D8E28EE2E2E2F5E2E2E28EE2E2E2E2E2E2E2E2E2E2E2E2E2E2E2E2E2E2E2F50FF5E2E2F5F5F5E20FE2F5E2E2E2
310
E2E2E2E2E2E2E2E2E2E2E2E2E2E2E2E2E2E2E2E2E2E2E2E2E2E2E2E2E2E28E8E8ED8D8D8EFF5EFEFEFEFF5EFEFF5EFF5EFEFEFEFEFEFEFD8D8E2E2E2E2E2E2E2E2E2E2E2E2E2E2E2E2E2E2E2E2E2E2E2E2E2E2E2E2E2E2E2E2E2E2E2E2E2E2E2E2E2E2E2E2E2E2E2E2E2E2E2E2E2E2E2E2E2E2E2E2E2E2E2E2E2D88E8EF58E
310
8E8E8E8E8E8EF58E8E8E8E8E8E8EF58E8E8ED8E2E2E2E2E2E2E2E2E2E2E2E2E2E2E2E2E2E2E2F50FF5E2E2F5F5F5E20FE2F5E2E2E2E2E2E2E2E2E2E2E2E2E2E2E2E2E2E2E2E2E2E2E2E2E2E2E2E2E2E2E2E2E2E2E2E2D8EFD8EFF5EFEFEFEFF5EFEFF5EFF5EFEFEFEFEFEFD8D8D8E2E2E2E2E2E2E2E2E2E2E2E2E2E2E2E2E2
310
E2E2E2E2E2E2E2E2E2E2E2E2E2E2E2E2E2E2E2E2E2E2E2E2E2E2E2E2E2E2E2E2E2E2E2E2E2E2E2E2E2E2E2E2E2E2E2E2D8E2E2F5E2E2E2E2E2E2E2F5E2E2E2E2E2E2E2F5E2E2E2D8E2E2E2E2E2E2E2E2E2E2E2E2E2E2E2E2E2E2E2F50FF5E2E2F5F5F5E20FE2F5E2E2E2E2E2E2E2E2E2E2E2E2E2E2E2E2E2E2E2E2E2E2E2E2
310
E2E2E2E2E2E2E2E2E2E2E2E2D8D8EFEFEFEFEFEFEFEFEFEFEFEFEFEFEFEFEFEFEFEFD8D8E2E2E2E2E2E2E2E2E2E2E2E2E2E2E2E2E2E2E2E2E2E2E2E2E2E2E2E2E2E2E2E2E2E2E2E2E2E2E2E2E2E2E2E2E2E2E2E2E2E2E2E2E2E2E2E2E2E2E2E2E2E2E2E2E2D8D8D8F5D8D8D8D8D8D8D8F5D8D8D8D8D8D8D8F5D8D8D8D8E2E2
310
E2E2E2E2E2E2E2E2E2E2E2E2E2E2E2E2E2F50FF5E2E2F5F5F5E20FE2F5E2E2E2E2E2E2E2E2E2E2E2E2E2E2E2E2E2E2E2E2E2E2E2E2E2E2E2E2E2E2E2E2E2E2E2E2E2E2E2E2E2E2E2E2E2E2E2E2E2E2E2E2E2E2E2E2E2E2E2E2E2E2E2E2E2E2E2E2E2E2E2E2E2E2E2E2E2E2E2E2E2E2E2E2E2E2E2E2E2E2E2E2E2E2E2E2E2E2
310
E2E2E2E2E2E2E2E2E2E2E2E2E2E2E2E2E2E2E2E2E2E2E2E2E2E2E2E2E2E2F5E2E2E2E2E2E2E2F5E2E2E2E2E2E2E2F5E2E2E2E2E2E2E2E2E2E2E2E2E2E2E2E2E2E2E2E2E2E2E2F50FF5E2E2F5F5F5E20FE2F5E2E2E2E2E2E2E2E2E2E2E2E2E2E2E2E2E2E2E2E2E2E2E2E2E2E2E2E2E2E2E2E2E2E2E2E2E2E2E2E2E2E2E2E2E2
310
E2E2E2E2E2E2E2E2E2E2E2E2E2E2E2E2E2E2E2E2E2E2E2E2E2E2E2E2E2E2E2E2E2E2E2E2E2E2E2E2E2E2E2E2E2E2E2E2E2E2E2E2E2E2E2E2E2E2E2E2E2E2E2E2E2E2E2E2E2E2E2E2E2E2E2E2E2E2E2E2E2E2E2F5E2E2E2E2E2E2E2F5E2E2E2E2E2E2E2F5E2E2E2E2E2E2E2E2E2E2E2E2E2E2E2E2E2E2E2E2E2E2E2F50FF5E2
310
E2F5F5F5E20FE2F5E2E2E2E2E2E2E2E2E2E2E2E2E2E2E2E2E2E2E2E2E2E2E2E2E2E2E2E2E2E2E2E2E2E2E2E2E2E2E2E2E2E2E2E2E2E2E2E2E2E2E2E2E2E2E2E2E2E2E2E2E2E2E2E2E2E2E2E2E2E2E2E2E2E2E2E2E2E2E2E2E2E2E2E2E2E2E2E2E2E2E2E2E2E2E2E2E2E2E2E2E2E2E2E2E2E2E2E2E2E2E2E2E2E2E2E2E2E2E2
310
E2E2E2E2E2E2E2E2E2E2E2E2E2E2E2E2E2E2E2E2E2E2E2E2E2E2E2E2E2E2E2E2E2E2E2E2E2E2E2E2E2E2E2E2E2E2E2E2E2F50FF5E2E2F5F5F5E20FE2F5E2E2E2E2E2E2E2E2E2E2E2E2E2E2E2E2E2E2E2E2E2E2E2E2E2E2E2E2E2E2E2E2E2E2E2E2E2E2E2E2E2E2E2E2E2E2E2E2E2E2E2E2E2E2E2E2E2E2E2E2E2E2E2E2E2E2
310
E2E2E2E2E2E2E2E2E2E2E2E2E2E2E2E2E2E2E2E2E2E2E2E2E2E2E2E2E2E2E2E2E2E2E2E2E2E2E2E2E2E2E2E2E2E2E2E2E2E2E2E2E2E2E2E2E2E2E2E2E2E2E2E2E2E2E2E2E2E2E2E2E2E2E2E2E2E2E2E2E2E2E2E2E2E2E2E2E2E2E2E2E2E2E2E2E2E2E2E2E2E2F50FF5E2E2F5F5F5E20FE2F5E2E2E2E2E2E2E2E2E2E2E2E2E2
310
E2E2E2E2E2E2E2E2E2E2E2E2E2E2E2E2E2E2E2E2E2E2E2E2E2E2E2E2E2E2E2E2E2E2E2E2E2E2E2E2E2E2E2E2E2E2E2E2E2E2E2E2E2E2E2E2E2E2E2E2E2E2E2E2E2E2E2E2E2E2E2E2E2E2E2E2E2E2E2E2E2E2E2E2E2E2E2E2E2E2E2E2E2E2E2E2E2E2E2E2E2E2E2E2E2E2E2E2E2E2E2E2E2E2E2E2E2E2E2E2E2E2E2E2E2E2E2
310
E2E2E2E2E2E2E2E2E2E2E2E2E2E2E2E2E2E2E2E2E2E2E2E2E2E2E2E2F50FF5E2E2F5F5F5E20FE2F5E2E2E2E2E2E2E2E2E2E2E2E2E2E2E2E2E2E2E2E2E2E2E2E2E2E2E2E2E2E2E2E2E2E2E2E2E2E2E2E2E2E2E2E2E2E2E2E2E2E2E2E2E2E2E2E2E2E2E2E2E2E2E2E2E2E2E2E2E2E2E2E2E2E2E2E2E2E2E2E2E2E2E2E2E2E2E2
310
E2E2E2E2E2E2E2E2E2E2E2E2E2E2E2E2E2E2E2E2E2E2E2E2E2E2E2E2E2E2E2E2E2E2E2E2E2E2E2E2E2E2E2E2E2E2E2E2E2E2E2E2E2E2E2E2E2E2E2E2E2E2E2E2E2E2E2E2E2E2E2E2E2E2E2E2E2E2E2E2E2F50FF5E2E2F5F5F5E20FE2F5E2E2E2E2E2E2E2E2E2E2E2E2E2E2E2E2E2E2E2E2E2E2E2E2E2E2E2E2E2E2E2E2E2E2
310
E2E2E2E2E2E2E2E2E2E2E2E2E2E2E2E2E2E2E2E2E2E2E2E2E2E2E2E2E2E2E2E2E2E2E2E2E2E2E2E2E2E2E2E2E2E2E2E2E2E2E2E2E2E2E2E2E2E2E2E2E2E2E2E2E2E2E2E2E2E2E2E2E2E2E2E2E2E2E2E2E2E2E2E2E2E2E2E2E2E2E2E2E2E2E2E2E2E2E2E2E2E2E2E2E2E2E2E2E2E2E2E2E2E2E2E2E2E2E2E2E2E2E2E2E2E2E2
310
E2E2E2E2E2E2E2F50FF5E2E2F5F5F5E20FE2F5E2E2E2E2E2E2E2E2E2E2E2E2E2E2E2E2E2E2E2E2E2E2E2E2E2E2E2E2E2E2E2E2E2E2E2E2E2E2E2E2E2E2E2E2E2E2E2E2E2E2E2E2E2E2E2E2E2E2E2E2E2E2E2E2E2E2E2E2E2E2E2E2E2E2E2E2E2E2E2E2E2E2E2E2E2E2E2E2E2E2E2E2E2E2E2E2E2E2E2E2E2E2E2E2E2E2E2E2
310
E2E2E2E2E2E2E2E2E2E2E2E2E2E2E2E2E2E2E2E2E2E2E2E2E2E2E2E2E2E2E2E2E2E2E2E2E2E2E2E2E2E2E2E2E2E2E2E2E2E2E2E2E2E2E2E2E2E2E2E2F50FF5E2E2F5F5F5E20FE2F5E2E2E2E2E2E2E2E2E2E2E2E2E2E2E2E2E2E2E2E2E2E2E2E2E2E2E2E2E2E2E2E2E2E2E2E2E2E2E2E2E2E2E2E2E2E2E2E2E2E2E2E2E2E2E2
310
E2E2E2E2E2E2E2E2E2E2E2E2E2E2E2E2E2E2E2E2E2E2E2E2E2E2E2E2E2E2E2E2E2E2E2E2E2E2E2E2E2E2E2E2E2E2E2E2E2E2E2E2E2E2E2E2E2E2E2E2E2E2E2E2E2E2E2E2E2E2E2E2E2E2E2E2E2E2E2E2E2E2E2E2E2E2E2E2E2E2E2E2E2E2E2E2E2E2E2E2E2E2E2E2E2E2E2E2E2E2E2E2E2F50FF5E2E2F5F5F5E20FE2F5E2E2
310
E2E2E2E2E2E2E2E2E2E2E2E2E2E2E2E2E2E2E2E2E2E2E2E2E2E2E2E2E2E2E2E2E2E2E2E2E2E2E2E2E2E2E2E2E2E2E2E2E2E2E2E2E2E2E2E2E2E2E2E2E2E2E2E2E2E2E2E2E2E2E2E2E2E2E2E2E2E2E2E2E2E2E2E2E2E2E2E2E2E2E2E2E2E2E2E2E2E2E2E2E2E2E2E2E2E2E2E2E2E2E2E2E2E2E2E2E2E2E2E2E2E2E2E2E2E2E2
310
E2E2E2E2E2E2E2E2E2E2E2E2E2E2E2E2E2E2E2E2E2E2E2E2E2E2E2E2E2E2E2E2E2E2E2E2E2E2E2F50FF5E2E2F5F5F5E20FE2F5E2E2E2E2E2E2E2E2E2E2E2E2E2E2E2E2E2E2E2E2E2E2E2E2E2E2E2E2E2E2E2E2E2E2E2E2E2E2E2E2E2E2E2E2E2E2E2E2E2E2E2E2E2E2E2E2E2E2E2E2E2E2E2E2E2E2E2E2E2E2E2E2E2E2E2E2
310
E2E2E2E2E2E2E2E2E2E2E2E2E2E2E2E2E2E2E2E2E2E2E2E2E2E2E2E2E2E2E2E2E2E2E2E2E2E2E2E2E2E2E2E2E2E2E2E2E2E2E2E2E2E2E2E2E2E2E2E2E2E2E2E2E2E2E2E2E2E2E2E2E2E2E2E2E2E2E2E2E2E2E2E2E2E2E2E2E2E2E2E2F50FF5E2E2F5F5F5E20FE2F5E2E2E2E2E2E2E2E2E2E2E2E2E2E2E2E2E2E2E2E2E2E2E2
310
E2E2E2E2E2E2E2E2E2E2E2E2E2E2E2E2E2E2E2E2E2E2E2E2E2E2E2E2E2E2E2E2E2E2E2E2E2E2E2E2E2E2E2E2E2E2E2E2E2E2E2E2E2E2E2E2E2E2E2E2E2E2E2E2E2E2E2E2E2E2E2E2E2E2E2E2E2E2E2E2E2E2E2E2E2E2E2E2E2E2E2E2E2E2E2E2E2E2E2E2E2E2E2E2E2E2E2E2E2E2E2E2E2E2E2E2E2E2E2E2E2E2E2E2E2E2E2
310
E2E2E2E2E2E2E2E2E2E2E2E2E2E2E2E2E2E2F50FF5E2E2F5F5F5E20FE2F5E2E2E2E2E2E2E2E2E2E2E2E2E2E2E2E2E2E2E2E2E2E2E2E2E2E2E2E2E2E2E2E2E2E2E2E2E2E2E2E2E2E2E2E2E2E2E2E2E2E2E2E2E2E2E2E2E2E2E2E2E2E2E2E2E2E2E2E2E2E2E2E2E2E2E2E2E2E2E2E2E2E2E2E2E2E2E2E2E2E2E2E2E2E2E2E2E2
310
E2E2E2E2E2E2E2E2E2E2E2E2E2E2E2E2E2E2E2E2E2E2E2E2E2E2E2E2E2E2E2E2E2E2E2E2E2E2E2E2E2E2E2E2E2E2E2E2E2E2E2E2E2E2E2E2E2E2E2E2E2E2E2E2E2E2E2E2E2E2E2F50FF5E2E2F5F5F5E20FE2F5E2E2E2E2E2E2E2E2E2E2E2E2E2E2E2E2E2E2E2E2E2E2E2E2E2E2E2E2E2E2E2E2E2E2E2E2E2E2E2E2E2E2E2E2
310
E2E2E2E2E2E2E2E2E2E2E2E2E2E2E2E2E2E2E2E2E2E2E2E2E2E2E2E2E2E2E2E2E2E2E2E2E2E2E2E2E2E2E2E2E2E2E2E2E2E2E2E2E2E2E2E2E2E2E2E2E2E2E2E2E2E2E2E2E2E2E2E2E2E2E2E2E2E2E2E2E2E2E2E2E2E2E2E2E2E2E2E2E2E2E2E2E2E2E2E2E2E2E2E2E2E2E2E2E2E2E2E2E2E2E2E2E2E2E2E2E2E2E2E2F50FF5
310
E2E2F5F5F5E20FE2F5E2E2E2E2E2E2E2E2E2E2E2E2E2E2E2E2E2E2E2E2E2E2E2E2E2E2E2E2E2E2E2E2E2E2E2E2E2E2E2E2E2E2E2E2E2E2E2E2E2E2E2E2E2E2E2E2E2E2E2E2E2E2E2E2E2E2E2E2E2E2E2E2E2E2E2E2E2E2E2E2E2E2E2E2E2E2E2E2E2E2E2E2E2E2E2E2E2E2E2E2E2E2E2E2E2E2E2E2E2E2E2E2E2E2E2E2E2E2
310
E2E2E2E2E2E2E2E2E2E2E2E2E2E2E2E2E2E2E2E2E2E2E2E2E2E2E2E2E2E2E2E2E2E2E2E2E2E2E2E2E2E2E2E2E2E2E2E2E2E2F50FF5E2E2F5F5F5E20FE2F5E2E2E2E2E2E2E2E2E2E2E2E2E2E2E2E2E2E2E2E2E2E2E2E2E2E2E2E2E2E2E2E2E2E2E2E2E2E2E2E2E2E2E2E2E2E2E2E2E2E2E2E2E2E2E2E2E2E2E2E2E2E2E2E2E2
310
E2E2E2E2E2E2E2E2E2E2E2E2E2E2E2E2E2E2E2E2E2E2E2E2E2E2E2E2E2E2E2E2E2E2E2E2E2E2E2E2E2E2E2E2E2E2E2E2E2E2E2E2E2E2E2E2E2E2E2E2E2E2E2E2E2E2E2E2E2E2E2E2E2E2E2E2E2E2E2E2E2E2E2E2E2E2E2E2E2E2E2E2E2E2E2E2E2E2E2E2E2E2E2F50FF5E2E2F5F5F5E20FE2F5E2E2E2E2E2E2E2E2E2E2E2E2
310
E2E2E2E2E2E2E2E2E2E2E2E2E2E2E2E2E2E2E2E2E2E2E2E2E2E2E2E2E2E2E2E2E2E2E2E2E2E2E2E2E2E2E2E2E2E2E2E2E2E2E2E2E2E2E2E2E2E2E2E2E2E2E2E2E2E2E2E2E2E2E2E2E2E2E2E2E2E2E2E2E2E2E2E2E2E2E2E2E2E2E2E2E2E2E2E2E2E2E2E2E2E2E2E2E2E2E2E2E2E2E2E2E2E2E2E2E2E2E2E2E2E2E2E2E2E2E2
310
E2E2E2E2E2E2E2E2E2E2E2E2E2E2E2E2E2E2E2E2E2E2E2E2E2E2E2E2E2F50FF5E2E2F5F5F5E20FE2F5E2E2E2E2E2E2E2E2E2E2E2E2E2E2E2E2E2E2E2E2E2E2E2E2E2E2E2E2E2E2E2E2E2E2E2E2E2E2E2E2E2E2E2E2E2E2E2E2E2E2E2E2E2E2E2E2E2E2E2E2E2E2E2E2E2E2E2E2E2E2E2E2E2E2E2E2E2E2E2E2E2E2E2E2E2E2
310
E2E2E2E2E2E2E2E2E2E2E2E2E2E2E2E2E2E2E2E2E2E2E2E2E2E2E2E2E2E2E2E2E2E2E2E2E2E2E2E2E2E2E2E2E2E2E2E2E2E2E2E2E2E2E2E2E2E2E2E2E2E2E2E2E2E2E2E2E2E2E2E2E2E2E2E2E2E2E2E2E2E2F50FF5E2E2F5F5F5E20FE2F5E2E2E2E2E2E2E2E2E2E2E2E2E2E2E2E2E2E2E2E2E2E2E2E2E2E2E2E2E2E2E2E2E2
310
E2E2E2E2E2E2E2E2E2E2E2E2E2E2E2E2E2E2E2E2E2E2E2E2E2E2E2E2E2E2E2E2E2E2E2E2E2E2E2E2E2E2E2E2E2E2E2E2E2E2E2E2E2E2E2E2E2E2E2E2E2E2E2E2E2E2E2E2E2E2E2E2E2E2E2E2E2E2E2E2E2E2E2E2E2E2E2E2E2E2E2E2E2E2E2E2E2E2E2E2E2E2E2E2E2E2E2E2E2E2E2E2E2E2E2E2E2E2E2E2E2E2E2E2E2E2E2
310
E2E2E2E2E2E2E2E2F50FF5E2E2F5F5F5E20FE2F5E2E2E2E2E2E2E2E2E2E2E2E2E2E2E2E2E2E2E2E2E2E2E2E2E2E2E2E2E2E2E2E2E2E2E2E2E2E2E2E2E2E2E2E2E2E2E2E2E2E2E2E2E2E2E2E2E2E2E2E2E2E2E2E2E2E2E2E2E2E2E2E2E2E2E2E2E2E2E2E2E2E2E2E2E2E2E2E2E2E2E2E2E2E2E2E2E2E2E2E2E2E2E2E2E2E2E2
310
E2E2E2E2E2E2E2E2E2E2E2E2E2E2E2E2E2E2E2E2E2E2E2E2E2E2E2E2E2E2E2E2E2E2E2E2E2E2E2E2E2E2E2E2E2E2E2E2E2E2E2E2E2E2E2E2E2E2E2E2E2F50FF5E2E2F5F5F5E20FE2F5E2E2E2E2E2E2E2E2E2E2E2E2E2E2E2E2E2E2E2E2E2E2E2E2E2E2E2E2E2E2E2E2E2E2E2E2E2E2E2E2E2E2E2E2E2E2E2E2E2E2E2E2E2E2
310
E2E2E2E2E2E2E2E2E2E2E2E2E2E2E2E2E2E2E2E2E2E2E2E2E2E2E2E2E2E2E2E2E2E2E2E2E2E2E2E2E2E2E2E2E2E2E2E2E2E2E2E2E2E2E2E2E2E2E2E2E2E2E2E2E2E2E2E2E2E2E2E2E2E2E2E2E2E2E2E2E2E2E2E2E2E2E2E2E2E2E2E2E2E2E2E2E2E2E2E2E2E2E2E2E2E2E2E2E2E2E2E2E2E2F50FF5E2E2F5F5F5E20FE2F5E2
310
E2E2E2E2E2E2E2E2E2E2E2E2E2E2E2E2E2E2E2E2E2E2E2E2E2E2E2E2E2E2E2E2E2E2E2E2E2E2E2E2E2E2E2E2E2E2E2E2E2E2E2E2E2E2E2E2E2E2E2E2E2E2E2E2E2E2E2E2E2E2E2E2E2E2E2E2E2E2E2E2E2E2E2E2E2E2E2E2E2E2E2E2E2E2E2E2E2E2E2E2E2E2E2E2E2E2E2E2E2E2E2E2E2E2E2E2E2E2E2E2E2E2E2E2E2E2E2
310
E2E2E2E2E2E2E2E2E2E2E2E2E2E2E2E2E2E2E2E2E2E2E2E2E2E2E2E2E2E2E2E2E2E2E2E2E2E2E2E2F50FF5E2E2F5F5F5E20FE2F5E2E2E2E2E2E2E2E2E2E2E2E2E2E2E2E2E2E2E2E2E2E2E2E2E2E2E2E2E2E2E2E2E2E2E2E2E2E2E2E2E2E2E2E2E2E2E2E2E2E2E2E2E2E2E2E2E2E2E2E2E2E2E2E2E2E2E2E2E2E2E2E2E2E2E2
310
E2E2E2E2E2E2E2E2E2E2E2E2E2E2E2E2E2E2E2E2E2E2E2E2E2E2E2E2E2E2E2E2E2E2E2E2E2E2E2E2E2E2E2E2E2E2E2E2E2E2E2E2E2E2E2E2E2E2E2E2E2E2E2E2E2E2E2E2E2E2E2E2E2E2E2E2E2E2E2E2E2E2E2E2E2E2E2E2E2E2E2E2E2F50FF5E2E2F5F5F5E20FE2F5E2E2E2E2E2E2E2E2E2E2E2E2E2E2E2E2E2E2E2E2E2E2
310
E2E2E2E2E2E2E2E2E2E2E2E2E2E2E2E2E2E2E2E2E2E2E2E2E2E2E2E2E2E2E2E2E2E2E2E2E2E2E2E2E2E2E2E2E2E2E2E2E2E2E2E2E2E2E2E2E2E2E2E2E2E2E2E2E2E2E2E2E2E2E2E2E2E2E2E2E2E2E2E2E2E2E2E2E2E2E2E2E2E2E2E2E2E2E2E2E2E2E2E2E2E2E2E2E2E2E2E2E2E2E2E2E2E2E2E2E2E2E2E2E2E2E2E2E2E2E2
310
E2E2E2E2E2E2E2E2E2E2E2E2E2E2E2E2E2E2E2F50FF5E2E2F5F5F5E20FE2F5E2E2E2E2E2E2E2E2E2E2E2E2E2E2E2E2E2E2E2E2E2E2E2E2E2E2E2E2E2E2E2E2E2E2E2E2E2E2E2E2E2E2E2E2E2E2E2E2E2E2E2E2E2E2E2E2E2E2E2E2E2E2E2E2E2E2E2E2E2E2E2E2E2E2E2E2E2E2E2E2E2E2E2E2E2E2E2E2E2E2E2E2E2E2E2E2
310
E2E2E2E2E2E2E2E2E2E2E2E2E2E2E2E2E2E2E2E2E2E2E2E2E2E2E2E2E2E2E2E2E2E2E2E2E2E2E2E2E2E2E2E2E2E2E2E2E2E2E2E2E2E2E2E2E2E2E2E2E2E2E2E2E2E2E2E2E2E2E2E2F50FF5E2E2F5F5F5E20FE2F5E2E2E2E2E2E2E2E2E2E2E2E2E2E2E2E2E2E2E2E2E2E2E2E2E2E2E2E2E2E2E2E2E2E2E2E2E2E2E2E2E2E2E2
310
E2E2E2E2E2E2E2E2E2E2E2E2E2E2E2E2E2E2E2E2E2E2E2E2E2E2E2E2E2E2E2E2E2E2E2E2E2E2E2E2E2E2E2E2E2E2E2E2E2E2E2E2E2E2E2E2E2E2E2E2E2E2E2E2E2E2E2E2E2E2E2E2E2E2E2E2E2E2E2E2E2E2E2E2E2E2E2E2E2E2E2E2E2E2E2E2E2E2E2E2E2E2E2E2E2E2E2E2E2E2E2E2E2E2E2E2E2E2E2E2E2E2E2E2E2F50F
310
F5E2E2F5F5F5E20FE2F5E2E2E2E2E2E2E2E2E2E2E2E2E2E2E2E2E2E2E2E2E2E2E2E2E2E2E2E2E2E2E2E2E2E2E2E2E2E2E2E2E2E2E2E2E2E2E2E2E2E2E2E2E2E2E2E2E2E2E2E2E2E2E2E2E2E2E2E2E2E2E2E2E2E2E2E2E2E2E2E2E2E2E2E2E2E2E2E2E2E2E2E2E2E2E2E2E2E2E2E2E2E2E2E2E2E2E2E2E2E2E2E2E2E2E2E2E2
310
E2E2E2E2E2E2E2E2E2E2E2E2E2E2E2E2E2E2E2E2E2E2E2E2E2E2E2E2E2E2E2E2E2E2E2E2E2E2E2E2E2E2E2E2E2E2E2E2E2E2E2F50FF5E2E2F5F5F5E20FE2F5E2E2E2E2E2E2E2E2E2E2E2E2E2E2E2E2E2E2E2E2E2E2E2E2E2E2E2E2E2E2E2E2E2E2E2E2E2E2E2E2E2E2E2E2E2E2E2E2E2E2E2E2E2E2E2E2E2E2E2E2E2E2E2E2
310
E2E2E2E2E2E2E2E2E2E2E2E2E2E2E2E2E2E2E2E2E2E2E2E2E2E2E2E2E2E2E2E2E2E2E2E2E2E2E2E2E2E2E2E2E2E2E2E2E2E2E2E2E2E2E2E2E2E2E2E2E2E2E2E2E2E2E2E2E2E2E2E2E2E2E2E2E2E2E2E2E2E2E2E2E2E2E2E2E2E2E2E2E2E2E2E2E2E2E2E2E2E2E2E2F50FF5E2E2F5F5F5E20FE2F5E2E2E2E2E2E2E2E2E2E2E2
310
E2E2E2E2E2E2E2E2E2E2E2E2E2E2E2E2E2E2E2E2E2E2E2E2E2E2E2E2E2E2E2E2E2E2E2E2E2E2E2E2E2E2E2E2E2E2E2E2E2E2E2E2E2E2E2E2E2E2E2E2E2E2E2E2E2E2E2E2E2E2E2E2E2E2E2E2E2E2E2E2E2E2E2E2E2E2E2E2E2E2E2E2E2E2E2E2E2E2E2E2E2E2E2E2E2E2E2E2E2E2E2E2E2E2E2E2E2E2E2E2E2E2E2E2E2E2E2
310
E2E2E2E2E2E2E2E2E2E2E2E2E2E2E2E2E2E2E2E2E2E2E2E2E2E2E2E2E2E2F50FF5E2E2F5F5F5E20FE2F5E2E2E2E2E2E2E2E2E2E2E2E2E2E2E2E2E2E2E2E2E2E2E2E2E2E2E2E2E2E2E2E2E2E2E2E2E2E2E2E2E2E2E2E2E2E2E2E2E2E2E2E2E2E2E2E2E2E2E2E2E2E2E2E2E2E2E2E2E2E2E2E2E2E2E2E2E2E2E2E2E2E2E2E2E2
310
E2E2E2E2E2E2E2E2E2E2E2E2E2E2E2E2E2E2E2E2E2E2E2E2E2E2E2E2E2E2E2E2E2E2E2E2E2E2E2E2E2E2E2E2E2E2E2E2E2E2E2E2E2E2E2E2E2E2E2E2E2E2E2E2E2E2E2E2E2E2E2E2E2E2E2E2E2E2E2E2E2E2E2F50FF5E2E2F5F5F5E20FE2F5F5F5F5F5F5F5F5F5F5F5F5F5F5F5F5F5F5F5F5F5F5F5F5F5F5F5F5F5F5F5F5F5
310
F5F5F5F5F5F5F5F5F5F5F5F5F5F5F5F5F5F5F5F5F5F5F5F5F5F5F5F5F5F5F5F5F5F5F5F5F5F5F5F5F5F5F5F5F5F5F5F5F5F5F5F5F5F5F5F5F5F5F5F5F5F5F5F5F5F5F5F5F5F5F5F5F5F5F5F5F5F5F5F5F5F5F5F5F5F5F5F5F5F5F5F5F5F5F5F5F5F5F5F5F5F5F5F5F5F5F5F5F5F5F5F5F5F5F5F5F5F5F5F5F5F5F5F5F5F5F5
310
F5F5F5F5F5F5F5F5F5F50FF5E2E2F5F5F5E20F0F0F0F0F0F0F0F0F0F0F0F0F0F0F0F0F0F0F0F0F0F0F0F0F0F0F0F0F0F0F0F0F0F0F0F0F0F0F0F0F0F0F0F0F0F0F0F0F0F0F0F0F0F0F0F0F0F0F0F0F0F0F0F0F0F0F0F0F0F0F0F0F0F0F0F0F0F0F0F0F0F0F0F0F0F0F0F0F0F0F0F0F0F0F0F0F0F0F0F0F0F0F0F0F0F0F0F0F
310
0F0F0F0F0F0F0F0F0F0F0F0F0F0F0F0F0F0F0F0F0F0F0F0F0F0F0F0F0F0F0F0F0F0F0F0F0F0F0F0F0F0F0F0F0F0F0F0F0F0F0F0F0F0F0F0F0F0F0F0F0F0F0F0FF5E2E2F5F5F5F5F5F5F5F5F5F5F5F5F5F5F5F5F5F5F5F5F5F5F5F5F5F5F5F5F5F5F5F5F5F5F5F5F5F5F5F5F5F5F5F5F5F5F5F5F5F5F5F5F5F5F5F5F5F5F5F5
310
F5F5F5F5F5F5F5F5F5F5F5F5F5F5F5F5F5F5F5F5F5F5F5F5F5F5F5F5F5F5F5F5F5F5F5F5F5F5F5F5F5F5F5F5F5F5F5F5F5F5F5F5F5F5F5F5F5F5F5F5F5F5F5F5F5F5F5F5F5F5F5F5F5F5F5F5F5F5F5F5F5F5F5F5F5F5F5F5F5F5F5F5F5F5F5F5F5F5F5F5F5F5F5F5F5F5F5F5F5F5F5F5F5F5F5F5F5F5E2E2F5EFF5F5F5F5F5
310
F5F5F5F5F5F5F5F5F5F5F5F5F5F5F5F5F5F5F5F5F5F5F5F5F5F5F5F5F5F5F5F5F5F5F5F5F5F5F5F5F5F5F5F5F5F5F5F5F5F5F5F5F5F5F5F5F5F5F5F5F5F5F5F5F5F5F5F5F5F5F5F5F5F5F5F5F5F5F5F5F5F5F5F5F5F5F5F5F5F5F5F5F5F5F5F5F5F5F5F5F5F5F5F5F5F5F5F5F5F5F5F5F5F5F5F5F5F5F5F5F5F5F5F5F5F5F5
310
F5F5F5F5F5F5F5F5F5F5F5F5F5F5F5F5F5F5F5F5F5F5F5F5F5F5F5F5F5F5F5F5F5F5F5F5F5F5F5F5F5F5F5F5F5F5F5EF
  0
ENDSEC
  0
EOF
