  0
SECTION
  2
HEADER
  9
$ACADVER
  1
AC1015
  9
$ACADMAINTVER
 70
     6
  9
$DWGCODEPAGE
  3
ANSI_1252
  9
$INSBASE
 10
0.0
 20
0.0
 30
0.0
  9
$EXTMIN
 10
-1037.084379028293
 20
-2.154359790008129
 30
0.0
  9
$EXTMAX
 10
-284.7451132940699
 20
512.4324130034349
 30
11.26038941138711
  9
$LIMMIN
 10
0.0
 20
0.0
  9
$LIMMAX
 10
420.0
 20
297.0
  9
$ORTHOMODE
 70
     1
  9
$REGENMODE
 70
     1
  9
$FILLMODE
 70
     1
  9
$QTEXTMODE
 70
     0
  9
$MIRRTEXT
 70
     1
  9
$LTSCALE
 40
8.0
  9
$ATTMODE
 70
     1
  9
$TEXTSIZE
 40
5.0
  9
$TRACEWID
 40
1.0
  9
$TEXTSTYLE
  7
Standard
  9
$CLAYER
  8
Rüttler
  9
$CELTYPE
  6
ByLayer
  9
$CECOLOR
 62
   256
  9
$CELTSCALE
 40
1.0
  9
$DISPSILH
 70
     0
  9
$DIMSCALE
 40
1.0
  9
$DIMASZ
 40
10.0
  9
$DIMEXO
 40
0.0
  9
$DIMDLI
 40
0.0
  9
$DIMRND
 40
0.0
  9
$DIMDLE
 40
0.0
  9
$DIMEXE
 40
5.0
  9
$DIMTP
 40
0.0
  9
$DIMTM
 40
0.0
  9
$DIMTXT
 40
10.0
  9
$DIMCEN
 40
2.5
  9
$DIMTSZ
 40
0.0
  9
$DIMTOL
 70
     0
  9
$DIMLIM
 70
     0
  9
$DIMTIH
 70
     0
  9
$DIMTOH
 70
     0
  9
$DIMSE1
 70
     0
  9
$DIMSE2
 70
     0
  9
$DIMTAD
 70
     0
  9
$DIMZIN
 70
     8
  9
$DIMBLK
  1

  9
$DIMASO
 70
     1
  9
$DIMSHO
 70
     1
  9
$DIMPOST
  1

  9
$DIMAPOST
  1

  9
$DIMALT
 70
     0
  9
$DIMALTD
 70
     3
  9
$DIMALTF
 40
0.03937007874016
  9
$DIMLFAC
 40
1.0
  9
$DIMTOFL
 70
     0
  9
$DIMTVP
 40
0.0
  9
$DIMTIX
 70
     1
  9
$DIMSOXD
 70
     0
  9
$DIMSAH
 70
     0
  9
$DIMBLK1
  1

  9
$DIMBLK2
  1

  9
$DIMSTYLE
  2
Stil 4
  9
$DIMCLRD
 70
     7
  9
$DIMCLRE
 70
     7
  9
$DIMCLRT
 70
   256
  9
$DIMTFAC
 40
1.0
  9
$DIMGAP
 40
5.0
  9
$DIMJUST
 70
     0
  9
$DIMSD1
 70
     0
  9
$DIMSD2
 70
     0
  9
$DIMTOLJ
 70
     0
  9
$DIMTZIN
 70
     8
  9
$DIMALTZ
 70
     0
  9
$DIMALTTZ
 70
     0
  9
$DIMUPT
 70
     1
  9
$DIMDEC
 70
     2
  9
$DIMTDEC
 70
     2
  9
$DIMALTU
 70
     2
  9
$DIMALTTD
 70
     3
  9
$DIMTXSTY
  7
Stil1
  9
$DIMAUNIT
 70
     0
  9
$DIMADEC
 70
     1
  9
$DIMALTRND
 40
0.0
  9
$DIMAZIN
 70
     2
  9
$DIMDSEP
 70
    44
  9
$DIMATFIT
 70
     3
  9
$DIMFRAC
 70
     0
  9
$DIMLDRBLK
  1

  9
$DIMLUNIT
 70
     2
  9
$DIMLWD
 70
    25
  9
$DIMLWE
 70
    25
  9
$DIMTMOVE
 70
     0
  9
$LUNITS
 70
     2
  9
$LUPREC
 70
     4
  9
$SKETCHINC
 40
1.0
  9
$FILLETRAD
 40
0.0
  9
$AUNITS
 70
     0
  9
$AUPREC
 70
     0
  9
$MENU
  1
.
  9
$ELEVATION
 40
0.0
  9
$PELEVATION
 40
0.0
  9
$THICKNESS
 40
0.0
  9
$LIMCHECK
 70
     0
  9
$CHAMFERA
 40
10.0
  9
$CHAMFERB
 40
10.0
  9
$CHAMFERC
 40
20.0
  9
$CHAMFERD
 40
0.0
  9
$SKPOLY
 70
     0
  9
$TDCREATE
 40
2453811.573595428
  9
$TDUCREATE
 40
2453811.531928761
  9
$TDUPDATE
 40
2456967.368804607
  9
$TDUUPDATE
 40
2456967.32713794
  9
$TDINDWG
 40
1.2778460069
  9
$TDUSRTIMER
 40
2456967.326827558
  9
$USRTIMER
 70
     1
  9
$ANGBASE
 50
0.0
  9
$ANGDIR
 70
     0
  9
$PDMODE
 70
     0
  9
$PDSIZE
 40
0.0
  9
$PLINEWID
 40
0.0
  9
$SPLFRAME
 70
     0
  9
$SPLINETYPE
 70
     6
  9
$SPLINESEGS
 70
     8
  9
$HANDSEED
  5
3A2B
  9
$SURFTAB1
 70
     6
  9
$SURFTAB2
 70
     6
  9
$SURFTYPE
 70
     6
  9
$SURFU
 70
     6
  9
$SURFV
 70
     6
  9
$UCSBASE
  2

  9
$UCSNAME
  2

  9
$UCSORG
 10
0.0
 20
0.0
 30
0.0
  9
$UCSXDIR
 10
1.0
 20
0.0
 30
0.0
  9
$UCSYDIR
 10
0.0
 20
1.0
 30
0.0
  9
$UCSORTHOREF
  2

  9
$UCSORTHOVIEW
 70
     0
  9
$UCSORGTOP
 10
0.0
 20
0.0
 30
0.0
  9
$UCSORGBOTTOM
 10
0.0
 20
0.0
 30
0.0
  9
$UCSORGLEFT
 10
0.0
 20
0.0
 30
0.0
  9
$UCSORGRIGHT
 10
0.0
 20
0.0
 30
0.0
  9
$UCSORGFRONT
 10
0.0
 20
0.0
 30
0.0
  9
$UCSORGBACK
 10
0.0
 20
0.0
 30
0.0
  9
$PUCSBASE
  2

  9
$PUCSNAME
  2

  9
$PUCSORG
 10
0.0
 20
0.0
 30
0.0
  9
$PUCSXDIR
 10
1.0
 20
0.0
 30
0.0
  9
$PUCSYDIR
 10
0.0
 20
1.0
 30
0.0
  9
$PUCSORTHOREF
  2

  9
$PUCSORTHOVIEW
 70
     0
  9
$PUCSORGTOP
 10
0.0
 20
0.0
 30
0.0
  9
$PUCSORGBOTTOM
 10
0.0
 20
0.0
 30
0.0
  9
$PUCSORGLEFT
 10
0.0
 20
0.0
 30
0.0
  9
$PUCSORGRIGHT
 10
0.0
 20
0.0
 30
0.0
  9
$PUCSORGFRONT
 10
0.0
 20
0.0
 30
0.0
  9
$PUCSORGBACK
 10
0.0
 20
0.0
 30
0.0
  9
$USERI1
 70
     0
  9
$USERI2
 70
     0
  9
$USERI3
 70
     0
  9
$USERI4
 70
     0
  9
$USERI5
 70
     0
  9
$USERR1
 40
0.0
  9
$USERR2
 40
0.0
  9
$USERR3
 40
0.0
  9
$USERR4
 40
0.0
  9
$USERR5
 40
0.0
  9
$WORLDVIEW
 70
     1
  9
$SHADEDGE
 70
     3
  9
$SHADEDIF
 70
    70
  9
$TILEMODE
 70
     0
  9
$MAXACTVP
 70
    64
  9
$PINSBASE
 10
0.0
 20
0.0
 30
0.0
  9
$PLIMCHECK
 70
     0
  9
$PEXTMIN
 10
-7.377373848580077
 20
-20.78659558916524
 30
0.0
  9
$PEXTMAX
 10
412.6226261514199
 20
276.2134044108346
 30
0.0
  9
$PLIMMIN
 10
-5.793749809265136
 20
-17.79375076293945
  9
$PLIMMAX
 10
414.2062501907349
 20
279.2062492370605
  9
$UNITMODE
 70
     0
  9
$VISRETAIN
 70
     1
  9
$PLINEGEN
 70
     0
  9
$PSLTSCALE
 70
     0
  9
$TREEDEPTH
 70
  3020
  9
$CMLSTYLE
  2
Standard
  9
$CMLJUST
 70
     0
  9
$CMLSCALE
 40
20.0
  9
$PROXYGRAPHICS
 70
     1
  9
$MEASUREMENT
 70
     1
  9
$CELWEIGHT
370
    -1
  9
$ENDCAPS
280
     0
  9
$JOINSTYLE
280
     0
  9
$LWDISPLAY
290
     0
  9
$INSUNITS
 70
     4
  9
$HYPERLINKBASE
  1

  9
$STYLESHEET
  1

  9
$XEDIT
290
     1
  9
$CEPSNTYPE
380
     0
  9
$PSTYLEMODE
290
     1
  9
$FINGERPRINTGUID
  2
{7D435445-2C95-4C5B-8C9D-B64E0DFFDC51}
  9
$VERSIONGUID
  2
{7DBC15CF-F7F6-4651-B93A-F2CC405ADDDD}
  9
$EXTNAMES
290
     1
  9
$PSVPSCALE
 40
0.0
  9
$OLESTARTUP
290
     0
  0
ENDSEC
  0
SECTION
  2
CLASSES
  0
CLASS
  1
ACDBDICTIONARYWDFLT
  2
AcDbDictionaryWithDefault
  3
ObjectDBX Classes
 90
        0
280
     0
281
     0
  0
CLASS
  1
ACDBPLACEHOLDER
  2
AcDbPlaceHolder
  3
ObjectDBX Classes
 90
        0
280
     0
281
     0
  0
CLASS
  1
LAYOUT
  2
AcDbLayout
  3
ObjectDBX Classes
 90
        0
280
     0
281
     0
  0
CLASS
  1
DICTIONARYVAR
  2
AcDbDictionaryVar
  3
ObjectDBX Classes
 90
        0
280
     0
281
     0
  0
CLASS
  1
SCALE
  2
AcDbScale
  3
ObjectDBX Classes
 90
     1153
280
     0
281
     0
  0
CLASS
  1
VISUALSTYLE
  2
AcDbVisualStyle
  3
ObjectDBX Classes
 90
     4095
280
     0
281
     0
  0
CLASS
  1
MATERIAL
  2
AcDbMaterial
  3
ObjectDBX Classes
 90
     1153
280
     0
281
     0
  0
CLASS
  1
TABLESTYLE
  2
AcDbTableStyle
  3
ObjectDBX Classes
 90
     4095
280
     0
281
     0
  0
CLASS
  1
MLEADERSTYLE
  2
AcDbMLeaderStyle
  3
ACDB_MLEADERSTYLE_CLASS
 90
     4095
280
     0
281
     0
  0
CLASS
  1
SUN
  2
AcDbSun
  3
SCENEOE
 90
     1153
280
     0
281
     0
  0
CLASS
  1
RASTERVARIABLES
  2
AcDbRasterVariables
  3
ISM
 90
        0
280
     0
281
     0
  0
ENDSEC
  0
SECTION
  2
TABLES
  0
TABLE
  2
VPORT
  5
8
330
0
100
AcDbSymbolTable
 70
     1
  0
VPORT
  5
39B9
330
8
100
AcDbSymbolTableRecord
100
AcDbViewportTableRecord
  2
*Active
 70
     0
 10
0.0
 20
0.0
 11
1.0
 21
1.0
 12
-635.9195825585998
 22
260.4988153100194
 13
0.0
 23
0.0
 14
10.0
 24
10.0
 15
10.0
 25
10.0
 16
0.0
 26
0.0
 36
1.0
 17
0.0
 27
0.0
 37
0.0
 40
573.1157419231861
 41
1.762081784386617
 42
50.0
 43
0.0
 44
0.0
 50
0.0
 51
0.0
 71
     0
 72
   100
 73
     1
 74
     3
 75
     0
 76
     0
 77
     0
 78
     0
281
     0
 65
     1
110
-1010.531685233663
120
-1223.353452448566
130
0.0
111
1.0
121
0.0
131
0.0
112
0.0
122
1.0
132
0.0
 79
     0
146
0.0
  0
ENDTAB
  0
TABLE
  2
LTYPE
  5
5
330
0
100
AcDbSymbolTable
 70
     3
  0
LTYPE
  5
14
330
5
100
AcDbSymbolTableRecord
100
AcDbLinetypeTableRecord
  2
ByBlock
 70
     0
  3

 72
    65
 73
     0
 40
0.0
  0
LTYPE
  5
15
330
5
100
AcDbSymbolTableRecord
100
AcDbLinetypeTableRecord
  2
ByLayer
 70
     0
  3

 72
    65
 73
     0
 40
0.0
  0
LTYPE
  5
16
330
5
100
AcDbSymbolTableRecord
100
AcDbLinetypeTableRecord
  2
Continuous
 70
     0
  3
Solid line
 72
    65
 73
     0
 40
0.0
  0
LTYPE
  5
2B
330
5
100
AcDbSymbolTableRecord
100
AcDbLinetypeTableRecord
  2
STRICHPUNKT
 70
     0
  3
__ . __ . __ . __ . __ . __ . __ . __ . __ . __
 72
    65
 73
     4
 40
1.0
 49
0.5
 74
     0
 49
-0.25
 74
     0
 49
0.0
 74
     0
 49
-0.25
 74
     0
  0
LTYPE
  5
2C
330
5
100
AcDbSymbolTableRecord
100
AcDbLinetypeTableRecord
  2
VERDECKT
 70
     0
  3
Verdeckt __ __ __ __ __ __ __ __ __ __ __ __ __
 72
    65
 73
     2
 40
9.524999999999999
 49
6.349999999999999
 74
     0
 49
-3.174999999999999
 74
     0
  0
ENDTAB
  0
TABLE
  2
LAYER
  5
2
102
{ACAD_XDICTIONARY
360
4F8
102
}
330
0
100
AcDbSymbolTable
 70
     8
  0
LAYER
  5
10
330
2
100
AcDbSymbolTableRecord
100
AcDbLayerTableRecord
  2
0
 70
     0
 62
     7
  6
Continuous
370
    -3
390
F
  0
LAYER
  5
50F
330
2
100
AcDbSymbolTableRecord
100
AcDbLayerTableRecord
  2
Defpoints
 70
     0
 62
     7
  6
Continuous
290
     0
370
    -3
390
F
  0
LAYER
  5
510
330
2
100
AcDbSymbolTableRecord
100
AcDbLayerTableRecord
  2
Bemaßung
 70
     0
 62
     1
  6
Continuous
370
    35
390
F
  0
LAYER
  5
C5E
330
2
100
AcDbSymbolTableRecord
100
AcDbLayerTableRecord
  2
Rüttler
 70
     0
 62
    62
  6
Continuous
370
    35
390
F
  0
LAYER
  5
11EA
330
2
100
AcDbSymbolTableRecord
100
AcDbLayerTableRecord
  2
Text
 70
     0
 62
     7
  6
Continuous
370
    25
390
F
  0
LAYER
  5
35A1
330
2
100
AcDbSymbolTableRecord
100
AcDbLayerTableRecord
  2
RAHMEN07
 70
     0
 62
     5
  6
Continuous
370
    50
390
F
  0
LAYER
  5
35A2
330
2
100
AcDbSymbolTableRecord
100
AcDbLayerTableRecord
  2
RAHMEN025
 70
     0
 62
     7
  6
Continuous
370
    25
390
F
  0
LAYER
  5
35A3
330
2
100
AcDbSymbolTableRecord
100
AcDbLayerTableRecord
  2
RAHMEN05
 70
     0
 62
     6
  6
Continuous
370
    50
390
F
  0
ENDTAB
  0
TABLE
  2
STYLE
  5
3
330
0
100
AcDbSymbolTable
 70
     4
  0
STYLE
  5
11
330
3
100
AcDbSymbolTableRecord
100
AcDbTextStyleTableRecord
  2
Standard
 70
     0
 40
0.0
 41
1.0
 50
0.0
 71
     0
 42
5.0
  3
txt
  4

  0
STYLE
  5
511
330
3
100
AcDbSymbolTableRecord
100
AcDbTextStyleTableRecord
  2
Stil1
 70
     0
 40
0.0
 41
1.0
 50
0.0
 71
     0
 42
2.5
  3
romans.shx
  4
bigfont.shx
  0
STYLE
  5
35A4
330
3
100
AcDbSymbolTableRecord
100
AcDbTextStyleTableRecord
  2
ISO Proportional
 70
     0
 40
0.0
 41
1.0
 50
0.0
 71
     0
 42
2.5
  3
isocp.shx
  4

  0
STYLE
  5
37E6
330
3
100
AcDbSymbolTableRecord
100
AcDbTextStyleTableRecord
  2
Stil2
 70
     0
 40
0.0
 41
1.0
 50
0.0
 71
     0
 42
2.5
  3
italict.shx
  4
bigfont.shx
  0
ENDTAB
  0
TABLE
  2
VIEW
  5
6
330
0
100
AcDbSymbolTable
 70
     0
  0
ENDTAB
  0
TABLE
  2
UCS
  5
7
330
0
100
AcDbSymbolTable
 70
     0
  0
ENDTAB
  0
TABLE
  2
APPID
  5
9
330
0
100
AcDbSymbolTable
 70
     1
  0
APPID
  5
12
330
9
100
AcDbSymbolTableRecord
100
AcDbRegAppTableRecord
  2
ACAD
 70
     0
  0
ENDTAB
  0
TABLE
  2
DIMSTYLE
  5
A
330
0
100
AcDbSymbolTable
 70
     4
100
AcDbDimStyleTable
  0
DIMSTYLE
105
27
330
A
100
AcDbSymbolTableRecord
100
AcDbDimStyleTableRecord
  2
ISO-25
 70
     0
 41
2.5
 42
0.625
 43
3.75
 44
1.25
 73
     0
 74
     0
 77
     1
 78
     8
140
2.5
141
2.5
143
0.03937007874016
147
0.625
171
     3
172
     1
178
     0
271
     2
272
     2
274
     3
278
    44
283
     0
284
     8
340
11
  0
DIMSTYLE
105
2D
330
A
100
AcDbSymbolTableRecord
100
AcDbDimStyleTableRecord
  2
Standard
 70
     0
178
     0
340
11
  0
DIMSTYLE
105
512
330
A
100
AcDbSymbolTableRecord
100
AcDbDimStyleTableRecord
  2
Stil 4
 70
     0
 41
10.0
 42
0.0
 43
0.0
 44
5.0
 73
     0
 74
     0
 77
     1
 78
     8
 79
     2
140
10.0
141
2.5
143
0.03937007874016
147
5.0
171
     3
172
     1
174
     1
176
     7
177
     7
271
     2
178
   256
179
     1
271
     2
272
     2
274
     3
278
    44
283
     0
284
     8
288
     1
340
511
371
    25
372
    25
  0
DIMSTYLE
105
513
330
A
100
AcDbSymbolTableRecord
100
AcDbDimStyleTableRecord
  2
Stil 5
 70
     0
 41
3.0
 42
0.0
 43
0.0
 44
2.0
 73
     0
 74
     0
 77
     1
 78
     8
 79
     2
140
3.0
141
2.5
143
0.03937007874016
147
2.0
171
     3
172
     1
176
     7
177
     7
271
     2
178
   256
179
     1
271
     2
272
     2
274
     3
278
    44
283
     0
284
     8
288
     1
340
511
371
    25
372
    25
  0
ENDTAB
  0
TABLE
  2
BLOCK_RECORD
  5
1
330
0
100
AcDbSymbolTable
 70
     1
  0
BLOCK_RECORD
  5
1F
330
1
100
AcDbSymbolTableRecord
100
AcDbBlockTableRecord
  2
*Model_Space
340
22
  0
BLOCK_RECORD
  5
1B
330
1
100
AcDbSymbolTableRecord
100
AcDbBlockTableRecord
  2
*Paper_Space
340
1E
  0
ENDTAB
  0
ENDSEC
  0
SECTION
  2
BLOCKS
  0
BLOCK
  5
20
330
1F
100
AcDbEntity
  8
0
100
AcDbBlockBegin
  2
*Model_Space
 70
     0
 10
0.0
 20
0.0
 30
0.0
  3
*Model_Space
  1
*Model_Space
  0
ENDBLK
  5
21
330
1F
100
AcDbEntity
  8
0
100
AcDbBlockEnd
  0
BLOCK
  5
1C
330
1B
100
AcDbEntity
 67
     1
  8
0
100
AcDbBlockBegin
  2
*Paper_Space
 70
     0
 10
0.0
 20
0.0
 30
0.0
  3
*Paper_Space
  1
*Paper_Space
  0
ENDBLK
  5
1D
330
1B
100
AcDbEntity
 67
     1
  8
0
100
AcDbBlockEnd
  0
ENDSEC
  0
SECTION
  2
ENTITIES
  0
LINE
  5
E66
330
1F
100
AcDbEntity
  8
Rüttler
100
AcDbLine
 10
-348.1600934692912
 20
441.4405802942856
 30
0.0
 11
-344.6959918541535
 21
441.4405802942856
 31
0.0
  0
LINE
  5
E67
330
1F
100
AcDbEntity
  8
Rüttler
100
AcDbLine
 10
-344.6959918541535
 20
435.4405802942856
 30
0.0
 11
-348.1600934692912
 21
435.4405802942856
 31
0.0
  0
CIRCLE
  5
E68
330
1F
100
AcDbEntity
  8
Rüttler
100
AcDbCircle
 10
-346.4280426617226
 20
438.4405802942856
 30
0.0
 40
6.5
  0
CIRCLE
  5
E69
330
1F
100
AcDbEntity
  8
Rüttler
100
AcDbCircle
 10
-346.4280426617226
 20
438.4405802942856
 30
0.0
 40
3.5
  0
LINE
  5
E6A
330
1F
100
AcDbEntity
  8
Rüttler
100
AcDbLine
 10
-345.7146555184433
 20
448.4151017757304
 30
0.0
 11
-367.569279910683
 21
449.1782820764606
 31
0.0
  0
LINE
  5
E6B
330
1F
100
AcDbEntity
  8
Rüttler
100
AcDbLine
 10
-349.4280426617226
 20
322.7929054248874
 30
0.0
 11
-346.4280426617222
 21
324.5249562324563
 31
0.0
  0
LINE
  5
E6C
330
1F
100
AcDbEntity
  8
Rüttler
100
AcDbLine
 10
-346.4280426617226
 20
317.5967530021809
 30
0.0
 11
-349.4280426617226
 21
319.3288038097498
 31
0.0
  0
CIRCLE
  5
E6D
330
1F
100
AcDbEntity
  8
Rüttler
100
AcDbCircle
 10
-346.4280426617226
 20
321.0608546173186
 30
0.0
 40
6.5
  0
CIRCLE
  5
E6E
330
1F
100
AcDbEntity
  8
Rüttler
100
AcDbCircle
 10
-346.4280426617226
 20
321.0608546173186
 30
0.0
 40
3.5
  0
LINE
  5
E6F
330
1F
100
AcDbEntity
  8
Rüttler
100
AcDbLine
 10
-345.7146555184433
 20
311.0863331358738
 30
0.0
 11
-367.5692799106834
 21
310.3231528351434
 31
0.0
  0
LINE
  5
E70
330
1F
100
AcDbEntity
  8
0
  6
STRICHPUNKT
 62
     7
 48
3.0
370
    18
100
AcDbLine
 10
-488.8028836008579
 20
379.7507174558021
 30
0.0
 11
-321.432927399554
 21
379.7507174558021
 31
0.0
  0
LINE
  5
E71
330
1F
100
AcDbEntity
  8
Rüttler
100
AcDbLine
 10
-472.6179055002059
 20
301.7507174558022
 30
0.0
 11
-337.617905500206
 21
301.7507174558021
 31
0.0
  0
CIRCLE
  5
E72
330
1F
100
AcDbEntity
  8
Rüttler
100
AcDbCircle
 10
-405.117905500206
 20
379.7507174558022
 30
0.0
 40
74.5
  0
LINE
  5
E74
330
1F
100
AcDbEntity
  8
Rüttler
100
AcDbLine
 10
-355.117905500206
 20
493.7507174558021
 30
0.0
 11
-354.3318219296072
 21
448.7160198576468
 31
11.26038941138711
  0
LINE
  5
E75
330
1F
100
AcDbEntity
  8
Rüttler
100
AcDbLine
 10
-455.117905500206
 20
493.7507174558021
 30
0.0
 11
-455.9039890708042
 21
448.7160198576468
 31
11.26038941138711
  0
LINE
  5
E76
330
1F
100
AcDbEntity
  8
Rüttler
100
AcDbLine
 10
-389.7617800985442
 20
473.348306858879
 30
5.101379614055091
 11
-389.515405542844
 21
459.2335180160074
 31
8.630614344316655
  0
LINE
  5
E77
330
1F
100
AcDbEntity
  8
Rüttler
100
AcDbLine
 10
-420.4740309018673
 20
473.3483068588784
 30
5.101379614055234
 11
-420.7263229722368
 21
458.8945038276507
 31
8.715380801747862
  0
LINE
  5
E78
330
1F
100
AcDbEntity
  8
Rüttler
100
AcDbLine
 10
-745.2338061498942
 20
448.4004923818537
 30
0.0
 11
-842.1226910176292
 21
448.4004923818537
 31
0.0
  0
LINE
  5
E79
330
1F
100
AcDbEntity
  8
Rüttler
100
AcDbLine
 10
-858.5074957750458
 20
493.7507174558021
 30
0.0
 11
-745.5074957750458
 21
493.7507174558021
 31
0.0
  0
LINE
  5
E7A
330
1F
100
AcDbEntity
  8
Rüttler
100
AcDbLine
 10
-840.5074957750458
 20
504.7507174558021
 30
0.0
 11
-749.5074957750455
 21
504.7507174558021
 31
0.0
  0
LINE
  5
E7B
330
1F
100
AcDbEntity
  8
Rüttler
100
AcDbLine
 10
-824.5074957750458
 20
301.7507174558021
 30
0.0
 11
-764.5074957750455
 21
301.7507174558022
 31
0.0
  0
LINE
  5
E7C
330
1F
100
AcDbEntity
  8
0
  6
STRICHPUNKT
 62
     7
 48
3.0
370
    18
100
AcDbLine
 10
-1037.084379028293
 20
379.7507174558021
 30
0.0
 11
-552.9306125217981
 21
379.7507174558022
 31
0.0
  0
LINE
  5
E7E
330
1F
100
AcDbEntity
  8
Rüttler
100
AcDbLine
 10
-886.5074957750458
 20
301.7507174558021
 30
0.0
 11
-886.5074957750458
 21
457.7507174558021
 31
0.0
  0
LINE
  5
E7F
330
1F
100
AcDbEntity
  8
Rüttler
100
AcDbLine
 10
-894.5074957750458
 20
301.7507174558021
 30
0.0
 11
-894.5074957750458
 21
457.7507174558021
 31
0.0
  0
LINE
  5
E80
330
1F
100
AcDbEntity
  8
Rüttler
100
AcDbLine
 10
-902.5074957750458
 20
301.7507174558021
 30
0.0
 11
-902.5074957750458
 21
457.7507174558021
 31
0.0
  0
LINE
  5
E81
330
1F
100
AcDbEntity
  8
Rüttler
100
AcDbLine
 10
-904.0074957750315
 20
301.7507174558022
 30
0.0
 11
-904.0074957750458
 21
457.7507174558021
 31
0.0
  0
ARC
  5
E82
330
1F
100
AcDbEntity
  8
Rüttler
100
AcDbCircle
 10
-750.5074957750458
 20
379.7507174558021
 30
0.0
 40
280.0
100
AcDbArc
 50
165.8485817395108
 51
194.1514182604891
  0
LINE
  5
E83
330
1F
100
AcDbEntity
  8
Rüttler
370
    15
100
AcDbLine
 10
-851.5074957750456
 20
450.6639535221117
 30
0.0
 11
-851.5074957750456
 21
368.7507174558021
 31
0.0
  0
LINE
  5
E84
330
1F
100
AcDbEntity
  8
Rüttler
370
    15
100
AcDbLine
 10
-843.7811854001973
 20
448.4004923818537
 30
0.0
 11
-843.781185400197
 21
368.7507174558021
 31
0.0
  0
LINE
  5
E85
330
1F
100
AcDbEntity
  8
Rüttler
  6
VERDECKT
 62
     7
 48
0.3
370
    15
100
AcDbLine
 10
-913.6074957750441
 20
322.7929054248888
 30
0.0
 11
-909.607495775044
 21
322.7929054248883
 31
0.0
  0
LINE
  5
E86
330
1F
100
AcDbEntity
  8
Rüttler
  6
VERDECKT
 62
     7
 48
0.3
370
    15
100
AcDbLine
 10
-913.6074957750437
 20
324.5249562324577
 30
0.0
 11
-909.6074957750438
 21
324.5249562324571
 31
0.0
  0
LINE
  5
E87
330
1F
100
AcDbEntity
  8
Rüttler
100
AcDbLine
 10
-912.8074957750431
 20
327.5608546173199
 30
0.0
 11
-905.6074957750434
 21
327.5608546173188
 31
0.0
  0
LINE
  5
E88
330
1F
100
AcDbEntity
  8
Rüttler
  6
VERDECKT
 62
     7
 48
0.3
370
    15
100
AcDbLine
 10
-913.6074957750444
 20
319.3288038097512
 30
0.0
 11
-909.6074957750445
 21
319.3288038097506
 31
0.0
  0
LINE
  5
E89
330
1F
100
AcDbEntity
  8
Rüttler
  6
VERDECKT
 62
     7
 48
0.3
370
    15
100
AcDbLine
 10
-909.6074957750448
 20
317.5967530021817
 30
0.0
 11
-913.6074957750448
 21
317.5967530021822
 31
0.0
  0
LINE
  5
E8A
330
1F
100
AcDbEntity
  8
Rüttler
100
AcDbLine
 10
-905.6074957750452
 20
314.5608546173189
 30
0.0
 11
-912.8074957750451
 21
314.5608546173199
 31
0.0
  0
LINE
  5
E8B
330
1F
100
AcDbEntity
  8
Rüttler
100
AcDbLine
 10
-1014.253111852356
 20
305.2507174558021
 30
0.0
 11
-905.0074957750458
 21
305.2507174558021
 31
0.0
  0
LINE
  5
E8C
330
1F
100
AcDbEntity
  8
0
  6
STRICHPUNKT
 48
2.0
370
    18
100
AcDbLine
 10
-916.0074957750444
 20
321.0608546173204
 30
0.0
 11
-852.0189085322922
 21
321.0608546173152
 31
0.0
  0
ARC
  5
E8D
330
1F
100
AcDbEntity
  8
Rüttler
100
AcDbCircle
 10
-1014.253111852356
 20
313.2507174558021
 30
0.0
 40
8.0
100
AcDbArc
 50
194.1514182604923
 51
270.0
  0
LINE
  5
E8E
330
1F
100
AcDbEntity
  8
Rüttler
100
AcDbLine
 10
-913.607495775045
 20
315.36085461732
 30
0.0
 11
-913.6074957750436
 21
326.76085461732
 31
0.0
  0
ARC
  5
E8F
330
1F
100
AcDbEntity
  8
Rüttler
100
AcDbCircle
 10
-912.8074957750447
 20
315.3608546173198
 30
0.0
 40
0.8000000000000113
100
AcDbArc
 50
179.9999999999934
 51
269.999999999987
  0
ARC
  5
E90
330
1F
100
AcDbEntity
  8
Rüttler
100
AcDbCircle
 10
-912.8074957750435
 20
326.76085461732
 30
0.0
 40
0.8000000000000113
100
AcDbArc
 50
89.99999999998697
 51
179.9999999999934
  0
LINE
  5
E91
330
1F
100
AcDbEntity
  8
Rüttler
100
AcDbLine
 10
-864.5074957750458
 20
361.7507174558021
 30
0.0
 11
-864.5074957750458
 21
296.7507174558021
 31
0.0
  0
ARC
  5
E92
330
1F
100
AcDbEntity
  8
Rüttler
100
AcDbCircle
 10
-753.6541327737995
 20
322.9907232191054
 30
0.0
 40
112.8698628222399
100
AcDbArc
 50
169.1533298016427
 51
190.8466701983572
  0
LINE
  5
E93
330
1F
100
AcDbEntity
  8
Rüttler
100
AcDbLine
 10
-824.5074957750458
 20
361.7507174558021
 30
0.0
 11
-824.5074957750458
 21
296.7507174558021
 31
0.0
  0
LINE
  5
E94
330
1F
100
AcDbEntity
  8
0
  6
STRICHPUNKT
 62
     7
 48
3.0
370
    18
100
AcDbLine
 10
-844.5074957750458
 20
372.6365161380197
 30
0.0
 11
-844.5074957750458
 21
291.55812649995
 31
0.0
  0
LINE
  5
E95
330
1F
100
AcDbEntity
  8
Rüttler
100
AcDbLine
 10
-904.0074957750433
 20
329.5608546173188
 30
0.0
 11
-904.0074957750455
 21
312.5608546173186
 31
0.0
  0
LINE
  5
E96
330
1F
100
AcDbEntity
  8
Rüttler
100
AcDbLine
 10
-905.6074957750453
 20
312.5608546173189
 30
0.0
 11
-905.6074957750432
 21
329.5608546173188
 31
0.0
  0
LINE
  5
E97
330
1F
100
AcDbEntity
  8
Rüttler
100
AcDbLine
 10
-907.0074957750422
 20
342.2020918662663
 30
0.0
 11
-907.0074957750435
 21
327.560854617319
 31
0.0
  0
LINE
  5
E98
330
1F
100
AcDbEntity
  8
Rüttler
100
AcDbLine
 10
-864.5074957750458
 20
296.7507174558021
 30
0.0
 11
-824.5074957750455
 21
296.7507174558021
 31
0.0
  0
LINE
  5
E99
330
1F
100
AcDbEntity
  8
Rüttler
100
AcDbLine
 10
-873.5074957750458
 20
301.7507174558021
 30
0.0
 11
-902.5074957750458
 21
301.7507174558021
 31
0.0
  0
LINE
  5
E9A
330
1F
100
AcDbEntity
  8
Rüttler
100
AcDbLine
 10
-873.5074957750458
 20
301.7507174558021
 30
0.0
 11
-902.5074957750458
 21
301.7507174558021
 31
0.0
  0
LINE
  5
E9B
330
1F
100
AcDbEntity
  8
Rüttler
100
AcDbLine
 10
-907.0074957750446
 20
314.5608546173191
 30
0.0
 11
-907.0074957750454
 21
305.2507174558021
 31
0.0
  0
LINE
  5
E9C
330
1F
100
AcDbEntity
  8
Rüttler
100
AcDbLine
 10
-904.0074957750315
 20
301.7507174558022
 30
0.0
 11
-902.5074957750458
 21
301.7507174558021
 31
0.0
  0
ARC
  5
E9D
330
1F
100
AcDbEntity
  8
Rüttler
100
AcDbCircle
 10
-905.0074957750458
 20
304.2507174558021
 30
0.0
 40
1.0
100
AcDbArc
 50
0.0
 51
90.0
  0
LINE
  5
E9E
330
1F
100
AcDbEntity
  8
Rüttler
  6
VERDECKT
 62
     7
 48
0.3
370
    15
100
AcDbLine
 10
-909.6074957750448
 20
317.5967530021817
 30
0.0
 11
-907.6074957750442
 21
321.0608546173192
 31
0.0
  0
LINE
  5
E9F
330
1F
100
AcDbEntity
  8
Rüttler
100
AcDbLine
 10
-905.6074957750434
 20
327.5608546173188
 30
0.0
 11
-905.6074957750452
 21
314.5608546173189
 31
0.0
  0
ARC
  5
EA0
330
1F
100
AcDbEntity
  8
Rüttler
  6
VERDECKT
 62
     7
 48
0.3
370
    15
100
AcDbCircle
 10
-912.6074957750443
 20
321.0608546173199
 30
0.0
 40
3.464101615137725
100
AcDbArc
 50
329.9999999999933
 51
29.9999999999889
  0
ARC
  5
EA1
330
1F
100
AcDbEntity
  8
Rüttler
  6
VERDECKT
 62
     7
 48
0.3
370
    15
100
AcDbCircle
 10
-911.1074957750448
 20
318.4627784059663
 30
0.0
 40
1.732050807568906
100
AcDbArc
 50
329.9999999999933
 51
29.9999999999889
  0
LINE
  5
EA2
330
1F
100
AcDbEntity
  8
Rüttler
100
AcDbLine
 10
-904.0074957750455
 20
312.5608546173186
 30
0.0
 11
-905.6074957750453
 21
312.5608546173189
 31
0.0
  0
LINE
  5
EA3
330
1F
100
AcDbEntity
  8
Rüttler
  6
VERDECKT
 62
     7
 48
0.3
370
    15
100
AcDbLine
 10
-909.6074957750438
 20
324.5249562324571
 30
0.0
 11
-907.6074957750442
 21
321.0608546173192
 31
0.0
  0
ARC
  5
EA4
330
1F
100
AcDbEntity
  8
Rüttler
  6
VERDECKT
 62
     7
 48
0.3
370
    15
100
AcDbCircle
 10
-911.1074957750441
 20
323.658930828673
 30
0.0
 40
1.732050807568867
100
AcDbArc
 50
329.9999999999933
 51
29.9999999999889
  0
LINE
  5
EA5
330
1F
100
AcDbEntity
  8
Rüttler
100
AcDbLine
 10
-873.5074957750458
 20
301.7507174558021
 30
0.0
 11
-864.5074957750459
 21
301.750717455802
 31
0.0
  0
LINE
  5
EA6
330
1F
100
AcDbEntity
  8
Rüttler
100
AcDbLine
 10
-864.5074957750458
 20
301.7507174558021
 30
0.0
 11
-864.5074957750458
 21
296.7507174558021
 31
0.0
  0
LINE
  5
EA7
330
1F
100
AcDbEntity
  8
Rüttler
100
AcDbLine
 10
-824.5074957750455
 20
299.2507174558021
 30
0.0
 11
-824.5074957750455
 21
296.7507174558021
 31
0.0
  0
LINE
  5
EA8
330
1F
100
AcDbEntity
  8
Rüttler
100
AcDbLine
 10
-860.5074957750458
 20
365.7507174558021
 30
0.0
 11
-828.5074957750458
 21
365.7507174558021
 31
0.0
  0
LINE
  5
EA9
330
1F
100
AcDbEntity
  8
Rüttler
100
AcDbLine
 10
-858.5074957750458
 20
368.7507174558021
 30
0.0
 11
-830.5074957750458
 21
368.7507174558021
 31
0.0
  0
LINE
  5
EAA
330
1F
100
AcDbEntity
  8
Rüttler
370
    15
100
AcDbLine
 10
-886.5074957750458
 20
344.2307289824087
 30
0.0
 11
-864.5074957750459
 21
344.2307289824087
 31
0.0
  0
ARC
  5
EAB
330
1F
100
AcDbEntity
  8
Rüttler
100
AcDbCircle
 10
-908.5625838469159
 20
337.9206752279179
 30
0.0
 40
4.555088071873115
100
AcDbArc
 50
0.0
 51
70.03806160757902
  0
LINE
  5
EAC
330
1F
100
AcDbEntity
  8
Rüttler
100
AcDbLine
 10
-904.0074957750433
 20
329.5608546173188
 30
0.0
 11
-905.6074957750432
 21
329.5608546173188
 31
0.0
  0
ARC
  5
EAD
330
1F
100
AcDbEntity
  8
Rüttler
100
AcDbCircle
 10
-860.5074957750458
 20
361.7507174558021
 30
0.0
 40
4.0
100
AcDbArc
 50
90.0
 51
180.0
  0
ARC
  5
EAE
330
1F
100
AcDbEntity
  8
Rüttler
100
AcDbCircle
 10
-860.3074957750457
 20
367.5507174558021
 30
0.0
 40
1.8
100
AcDbArc
 50
270.0
 51
0.0
  0
LINE
  5
EAF
330
1F
100
AcDbEntity
  8
Rüttler
100
AcDbLine
 10
-860.5074957750458
 20
365.7507174558021
 30
0.0
 11
-860.3074957750457
 21
365.7507174558021
 31
0.0
  0
LINE
  5
EB0
330
1F
100
AcDbEntity
  8
Rüttler
100
AcDbLine
 10
-858.5074957750458
 20
368.7507174558021
 30
0.0
 11
-858.5074957750458
 21
367.5507174558021
 31
0.0
  0
ARC
  5
EB1
330
1F
100
AcDbEntity
  8
Rüttler
100
AcDbCircle
 10
-828.5074957750458
 20
361.7507174558021
 30
0.0
 40
4.0
100
AcDbArc
 50
0.0
 51
90.0
  0
LINE
  5
EB2
330
1F
100
AcDbEntity
  8
Rüttler
100
AcDbLine
 10
-830.5074957750458
 20
368.7507174558021
 30
0.0
 11
-830.5074957750458
 21
367.5507174558021
 31
0.0
  0
LINE
  5
EB3
330
1F
100
AcDbEntity
  8
Rüttler
100
AcDbLine
 10
-828.5074957750458
 20
365.7507174558021
 30
0.0
 11
-828.7074957750458
 21
365.7507174558021
 31
0.0
  0
ARC
  5
EB4
330
1F
100
AcDbEntity
  8
Rüttler
100
AcDbCircle
 10
-828.7074957750458
 20
367.5507174558021
 30
0.0
 40
1.8
100
AcDbArc
 50
180.0
 51
270.0
  0
LINE
  5
EB5
330
1F
100
AcDbEntity
  8
Rüttler
100
AcDbLine
 10
-959.6032103099298
 20
469.7507174558021
 30
0.0
 11
-905.0665343332465
 21
469.7507174558021
 31
0.0
  0
LINE
  5
EB6
330
1F
100
AcDbEntity
  8
Rüttler
100
AcDbLine
 10
-956.6494319924947
 20
483.7507174558021
 30
0.0
 11
-904.5270821725694
 21
483.7507174558021
 31
0.0
  0
LINE
  5
EB7
330
1F
100
AcDbEntity
  8
Rüttler
100
AcDbLine
 10
-1014.253111852356
 20
454.2507174558021
 30
0.0
 11
-905.0074957750455
 21
454.2507174558021
 31
0.0
  0
LINE
  5
EB8
330
1F
100
AcDbEntity
  8
Rüttler
  6
VERDECKT
 62
     7
 48
0.3
370
    15
100
AcDbLine
 10
-913.6074957750444
 20
440.172631101853
 30
0.0
 11
-909.6074957750445
 21
440.1726311018536
 31
0.0
  0
LINE
  5
EB9
330
1F
100
AcDbEntity
  8
Rüttler
100
AcDbLine
 10
-905.6074957750452
 20
444.9405802942854
 30
0.0
 11
-912.8074957750451
 21
444.9405802942843
 31
0.0
  0
LINE
  5
EBA
330
1F
100
AcDbEntity
  8
Rüttler
  6
VERDECKT
 62
     7
 48
0.3
370
    15
100
AcDbLine
 10
-909.6074957750448
 20
441.9046819094226
 30
0.0
 11
-913.6074957750448
 21
441.904681909422
 31
0.0
  0
LINE
  5
EBB
330
1F
100
AcDbEntity
  8
Rüttler
100
AcDbLine
 10
-912.8074957750431
 20
431.9405802942843
 30
0.0
 11
-905.6074957750434
 21
431.9405802942854
 31
0.0
  0
LINE
  5
EBC
330
1F
100
AcDbEntity
  8
Rüttler
  6
VERDECKT
 62
     7
 48
0.3
370
    15
100
AcDbLine
 10
-913.6074957750437
 20
434.9764786791466
 30
0.0
 11
-909.6074957750438
 21
434.9764786791471
 31
0.0
  0
LINE
  5
EBD
330
1F
100
AcDbEntity
  8
Rüttler
  6
VERDECKT
 62
     7
 48
0.3
370
    15
100
AcDbLine
 10
-913.6074957750441
 20
436.7085294867154
 30
0.0
 11
-909.607495775044
 21
436.7085294867159
 31
0.0
  0
LINE
  5
EBE
330
1F
100
AcDbEntity
  8
0
  6
STRICHPUNKT
 48
2.0
370
    18
100
AcDbLine
 10
-916.0074957750444
 20
438.4405802942839
 30
0.0
 11
-852.0189085322922
 21
438.440580294289
 31
0.0
  0
LINE
  5
EBF
330
1F
100
AcDbEntity
  8
0
  6
STRICHPUNKT
 48
3.0
370
    18
100
AcDbLine
 10
-969.0657148241173
 20
476.7507174558021
 30
0.0
 11
-846.90327898188
 21
476.7507174558021
 31
0.0
  0
ARC
  5
EC0
330
1F
100
AcDbEntity
  8
Rüttler
100
AcDbCircle
 10
-1014.253111852356
 20
446.2507174558021
 30
0.0
 40
8.0
100
AcDbArc
 50
90.0
 51
165.8485817395108
  0
LINE
  5
EC1
330
1F
100
AcDbEntity
  8
Rüttler
100
AcDbLine
 10
-913.607495775045
 20
444.1405802942843
 30
0.0
 11
-913.6074957750436
 21
432.7405802942841
 31
0.0
  0
ARC
  5
EC2
330
1F
100
AcDbEntity
  8
Rüttler
100
AcDbCircle
 10
-912.8074957750435
 20
432.7405802942843
 30
0.0
 40
0.8000000000000113
100
AcDbArc
 50
180.0000000000065
 51
270.000000000013
  0
ARC
  5
EC3
330
1F
100
AcDbEntity
  8
Rüttler
100
AcDbCircle
 10
-912.8074957750447
 20
444.1405802942844
 30
0.0
 40
0.8000000000000113
100
AcDbArc
 50
90.00000000001303
 51
180.0000000000065
  0
LINE
  5
EC4
330
1F
100
AcDbEntity
  8
Rüttler
100
AcDbLine
 10
-959.263588923359
 20
471.1086611386803
 30
0.0
 11
-959.6032103099298
 21
469.7507174558021
 31
0.0
  0
LINE
  5
EC5
330
1F
100
AcDbEntity
  8
Rüttler
100
AcDbLine
 10
-958.97825298325
 20
472.2495556418619
 30
0.0
 11
-959.263588923359
 21
471.1086611386803
 31
0.0
  0
LINE
  5
EC6
330
1F
100
AcDbEntity
  8
Rüttler
100
AcDbLine
 10
-958.1222396657915
 20
473.3904514775048
 30
0.0
 11
-958.97825298325
 21
472.2495556418619
 31
0.0
  0
LINE
  5
EC7
330
1F
100
AcDbEntity
  8
Rüttler
100
AcDbLine
 10
-957.5515659531966
 20
474.5313473131473
 30
0.0
 11
-958.1222396657915
 21
473.3904514775048
 31
0.0
  0
LINE
  5
EC8
330
1F
100
AcDbEntity
  8
Rüttler
100
AcDbLine
 10
-957.5515659531966
 20
477.9540348200757
 30
0.0
 11
-957.5515659531966
 21
474.5313473131473
 31
0.0
  0
LINE
  5
EC9
330
1F
100
AcDbEntity
  8
Rüttler
100
AcDbLine
 10
-957.8369018933054
 20
479.0949306557185
 30
0.0
 11
-957.5515659531966
 21
477.9540348200757
 31
0.0
  0
LINE
  5
ECA
330
1F
100
AcDbEntity
  8
Rüttler
100
AcDbLine
 10
-958.1222396657915
 20
480.235826491361
 30
0.0
 11
-957.8369018933054
 21
479.0949306557185
 31
0.0
  0
LINE
  5
ECB
330
1F
100
AcDbEntity
  8
Rüttler
100
AcDbLine
 10
-957.8369018933054
 20
481.3767223270039
 30
0.0
 11
-958.1222396657915
 21
480.235826491361
 31
0.0
  0
LINE
  5
ECC
330
1F
100
AcDbEntity
  8
Rüttler
100
AcDbLine
 10
-957.2662281807104
 20
482.5176181626464
 30
0.0
 11
-957.8369018933054
 21
481.3767223270039
 31
0.0
  0
LINE
  5
ECD
330
1F
100
AcDbEntity
  8
Rüttler
100
AcDbLine
 10
-956.6955526357382
 20
483.6585126658282
 30
0.0
 11
-957.2662281807104
 21
482.5176181626464
 31
0.0
  0
LINE
  5
ECE
330
1F
100
AcDbEntity
  8
Rüttler
100
AcDbLine
 10
-956.6494319924947
 20
483.7507174558021
 30
0.0
 11
-956.6955526357382
 21
483.6585126658282
 31
0.0
  0
ARC
  5
ECF
330
1F
100
AcDbEntity
  8
Rüttler
100
AcDbCircle
 10
-842.4519382090489
 20
467.6228182932526
 30
0.0
 40
19.22514543916178
100
AcDbArc
 50
207.4829216706749
 51
270.9812875959511
  0
ARC
  5
ED0
330
1F
100
AcDbEntity
  8
Rüttler
100
AcDbCircle
 10
-819.2661505745476
 20
436.5107116924987
 30
0.0
 40
47.28074755302426
100
AcDbArc
 50
153.3056052622227
 51
206.6943947377772
  0
LINE
  5
ED1
330
1F
100
AcDbEntity
  8
Rüttler
100
AcDbLine
 10
-861.5074957750458
 20
415.2707059291954
 30
0.0
 11
-861.507495775046
 21
457.7507174558021
 31
0.0
  0
LINE
  5
ED2
330
1F
100
AcDbEntity
  8
Rüttler
100
AcDbLine
 10
-902.5074957750458
 20
452.7507174558021
 30
0.0
 11
-902.5074957750458
 21
457.7507174558021
 31
0.0
  0
LINE
  5
ED3
330
1F
100
AcDbEntity
  8
Rüttler
100
AcDbLine
 10
-907.0074957750446
 20
444.9405802942851
 30
0.0
 11
-907.0074957750454
 21
454.2507174558021
 31
0.0
  0
LINE
  5
ED4
330
1F
100
AcDbEntity
  8
Rüttler
100
AcDbLine
 10
-907.0074957750422
 20
417.2993430453379
 30
0.0
 11
-907.0074957750435
 21
431.9405802942852
 31
0.0
  0
LINE
  5
ED5
330
1F
100
AcDbEntity
  8
Rüttler
370
    15
100
AcDbLine
 10
-886.5074957750458
 20
415.2707059291954
 30
0.0
 11
-861.5074957750458
 21
415.2707059291954
 31
0.0
  0
ARC
  5
ED6
330
1F
100
AcDbEntity
  8
Rüttler
100
AcDbCircle
 10
-908.5625838469159
 20
421.5807596836863
 30
0.0
 40
4.555088071873115
100
AcDbArc
 50
289.9619383924209
 51
0.0
  0
LINE
  5
ED7
330
1F
100
AcDbEntity
  8
Rüttler
100
AcDbLine
 10
-905.6074957750453
 20
446.9405802942853
 30
0.0
 11
-905.6074957750432
 21
429.9405802942853
 31
0.0
  0
LINE
  5
ED8
330
1F
100
AcDbEntity
  8
Rüttler
100
AcDbLine
 10
-904.0074957750433
 20
429.9405802942855
 30
0.0
 11
-904.0074957750455
 21
446.9405802942856
 31
0.0
  0
LINE
  5
ED9
330
1F
100
AcDbEntity
  8
Rüttler
100
AcDbLine
 10
-905.6074957750434
 20
431.9405802942854
 30
0.0
 11
-905.6074957750452
 21
444.9405802942854
 31
0.0
  0
LINE
  5
EDA
330
1F
100
AcDbEntity
  8
Rüttler
  6
VERDECKT
 62
     7
 48
0.3
370
    15
100
AcDbLine
 10
-909.6074957750438
 20
434.9764786791471
 30
0.0
 11
-907.6074957750442
 21
438.440580294285
 31
0.0
  0
ARC
  5
EDB
330
1F
100
AcDbEntity
  8
Rüttler
  6
VERDECKT
 62
     7
 48
0.3
370
    15
100
AcDbCircle
 10
-912.6074957750443
 20
438.4405802942843
 30
0.0
 40
3.464101615137725
100
AcDbArc
 50
330.000000000011
 51
30.00000000000672
  0
ARC
  5
EDC
330
1F
100
AcDbEntity
  8
Rüttler
  6
VERDECKT
 62
     7
 48
0.3
370
    15
100
AcDbCircle
 10
-911.1074957750441
 20
435.8425040829311
 30
0.0
 40
1.732050807568867
100
AcDbArc
 50
330.000000000011
 51
30.00000000000672
  0
LINE
  5
EDD
330
1F
100
AcDbEntity
  8
Rüttler
100
AcDbLine
 10
-904.0074957750433
 20
429.9405802942855
 30
0.0
 11
-905.6074957750432
 21
429.9405802942853
 31
0.0
  0
ARC
  5
EDE
330
1F
100
AcDbEntity
  8
Rüttler
  6
VERDECKT
 62
     7
 48
0.3
370
    15
100
AcDbCircle
 10
-911.1074957750448
 20
441.0386565056379
 30
0.0
 40
1.732050807568906
100
AcDbArc
 50
330.000000000011
 51
30.00000000000672
  0
LINE
  5
EDF
330
1F
100
AcDbEntity
  8
Rüttler
  6
VERDECKT
 62
     7
 48
0.3
370
    15
100
AcDbLine
 10
-909.6074957750448
 20
441.9046819094226
 30
0.0
 11
-907.6074957750442
 21
438.440580294285
 31
0.0
  0
LINE
  5
EE0
330
1F
100
AcDbEntity
  8
Rüttler
100
AcDbLine
 10
-904.0074957750455
 20
446.9405802942856
 30
0.0
 11
-905.6074957750453
 21
446.9405802942853
 31
0.0
  0
LINE
  5
EE1
330
1F
100
AcDbEntity
  8
Rüttler
100
AcDbLine
 10
-866.5074957750458
 20
489.7507174558021
 30
0.0
 11
-866.5074957750458
 21
463.7507174558021
 31
0.0
  0
LINE
  5
EE2
330
1F
100
AcDbEntity
  8
Rüttler
100
AcDbLine
 10
-858.5074957750455
 20
489.7507174558021
 30
0.0
 11
-858.5074957750458
 21
463.7507174558021
 31
0.0
  0
LINE
  5
EE3
330
1F
100
AcDbEntity
  8
Rüttler
100
AcDbLine
 10
-858.5074957750458
 20
493.7507174558021
 30
0.0
 11
-858.5074957750458
 21
459.7507174558021
 31
0.0
  0
LINE
  5
EE4
330
1F
100
AcDbEntity
  8
Rüttler
100
AcDbLine
 10
-904.193470296248
 20
485.0846324603816
 30
0.0
 11
-904.4788080687341
 21
483.9437366247389
 31
0.0
  0
LINE
  5
EE5
330
1F
100
AcDbEntity
  8
Rüttler
100
AcDbLine
 10
-873.5074957750458
 20
457.7507174558021
 30
0.0
 11
-902.5074957750458
 21
457.7507174558021
 31
0.0
  0
LINE
  5
EE6
330
1F
100
AcDbEntity
  8
Rüttler
100
AcDbLine
 10
-866.5074957750458
 20
464.2507174558021
 30
0.0
 11
-904.3411230307858
 21
465.6694784778924
 31
0.0
  0
LINE
  5
EE7
330
1F
100
AcDbEntity
  8
Rüttler
100
AcDbLine
 10
-905.0494836137065
 20
469.6825413441269
 30
0.0
 11
-904.4788080687341
 21
468.5416455084842
 31
0.0
  0
LINE
  5
EE8
330
1F
100
AcDbEntity
  8
Rüttler
100
AcDbLine
 10
-904.0074957750455
 20
457.7507174558021
 30
0.0
 11
-902.5074957750458
 21
457.7507174558021
 31
0.0
  0
ARC
  5
EE9
330
1F
100
AcDbEntity
  8
Rüttler
100
AcDbCircle
 10
-905.0074957750455
 20
455.2507174558021
 30
0.0
 40
1.0
100
AcDbArc
 50
270.0
 51
0.0
  0
LINE
  5
EEA
330
1F
100
AcDbEntity
  8
Rüttler
100
AcDbLine
 10
-904.193470296248
 20
466.2598538371987
 30
0.0
 11
-904.3411230307858
 21
465.6694784778924
 31
0.0
  0
LINE
  5
EEB
330
1F
100
AcDbEntity
  8
Rüttler
100
AcDbLine
 10
-904.193470296248
 20
467.4007496728414
 30
0.0
 11
-904.193470296248
 21
466.2598538371987
 31
0.0
  0
LINE
  5
EEC
330
1F
100
AcDbEntity
  8
Rüttler
100
AcDbLine
 10
-904.4788080687341
 20
468.5416455084842
 30
0.0
 11
-904.193470296248
 21
467.4007496728414
 31
0.0
  0
LINE
  5
EED
330
1F
100
AcDbEntity
  8
Rüttler
100
AcDbLine
 10
-903.9081325237621
 20
479.0949306557185
 30
0.0
 11
-903.9081325237621
 21
477.9540348200757
 31
0.0
  0
LINE
  5
EEE
330
1F
100
AcDbEntity
  8
Rüttler
100
AcDbLine
 10
-904.193470296248
 20
476.8131389844329
 30
0.0
 11
-904.193470296248
 21
475.6722431487902
 31
0.0
  0
LINE
  5
EEF
330
1F
100
AcDbEntity
  8
Rüttler
100
AcDbLine
 10
-904.4788080687341
 20
481.6619462859144
 30
0.0
 11
-904.193470296248
 21
480.235826491361
 31
0.0
  0
LINE
  5
EF0
330
1F
100
AcDbEntity
  8
Rüttler
100
AcDbLine
 10
-903.9081325237621
 20
477.9540348200757
 30
0.0
 11
-904.193470296248
 21
476.8131389844329
 31
0.0
  0
LINE
  5
EF1
330
1F
100
AcDbEntity
  8
Rüttler
100
AcDbLine
 10
-904.193470296248
 20
480.235826491361
 30
0.0
 11
-903.9081325237621
 21
479.0949306557185
 31
0.0
  0
LINE
  5
EF2
330
1F
100
AcDbEntity
  8
Rüttler
100
AcDbLine
 10
-905.3348195538156
 20
470.8234371797697
 30
0.0
 11
-905.0494836137065
 21
469.6825413441269
 31
0.0
  0
LINE
  5
EF3
330
1F
100
AcDbEntity
  8
Rüttler
100
AcDbLine
 10
-905.3348195538156
 20
471.9643330154124
 30
0.0
 11
-905.3348195538156
 21
470.8234371797697
 31
0.0
  0
LINE
  5
EF4
330
1F
100
AcDbEntity
  8
Rüttler
100
AcDbLine
 10
-905.0494836137065
 20
473.3904514775048
 30
0.0
 11
-905.3348195538156
 21
471.9643330154124
 31
0.0
  0
LINE
  5
EF5
330
1F
100
AcDbEntity
  8
Rüttler
100
AcDbLine
 10
-904.7641458412204
 20
474.5313473131473
 30
0.0
 11
-905.0494836137065
 21
473.3904514775048
 31
0.0
  0
LINE
  5
EF6
330
1F
100
AcDbEntity
  8
Rüttler
100
AcDbLine
 10
-904.193470296248
 20
475.6722431487902
 30
0.0
 11
-904.7641458412204
 21
474.5313473131473
 31
0.0
  0
LINE
  5
EF7
330
1F
100
AcDbEntity
  8
Rüttler
100
AcDbLine
 10
-904.7641458412204
 20
482.8028421215573
 30
0.0
 11
-904.4788080687341
 21
481.6619462859144
 31
0.0
  0
LINE
  5
EF8
330
1F
100
AcDbEntity
  8
Rüttler
100
AcDbLine
 10
-904.4788080687341
 20
483.9437366247389
 30
0.0
 11
-904.7641458412204
 21
482.8028421215573
 31
0.0
  0
LINE
  5
EF9
330
1F
100
AcDbEntity
  8
Rüttler
100
AcDbLine
 10
-873.5074957750458
 20
457.7507174558021
 30
0.0
 11
-862.0074957750458
 21
457.7507174558021
 31
0.0
  0
LINE
  5
EFA
330
1F
100
AcDbEntity
  8
Rüttler
100
AcDbLine
 10
-861.5074957750458
 20
458.750717455802
 30
0.0
 11
-859.5074957750458
 21
458.7507174558021
 31
0.0
  0
LINE
  5
EFB
330
1F
100
AcDbEntity
  8
Rüttler
100
AcDbLine
 10
-864.5074957750458
 20
461.7507174558021
 30
0.0
 11
-860.5074957750458
 21
461.7507174558021
 31
0.0
  0
LINE
  5
EFC
330
1F
100
AcDbEntity
  8
Rüttler
100
AcDbLine
 10
-861.5074957750458
 20
458.750717455802
 30
0.0
 11
-861.5074957750458
 21
458.2507174558021
 31
0.0
  0
ARC
  5
EFD
330
1F
100
AcDbEntity
  8
Rüttler
100
AcDbCircle
 10
-862.0074957750458
 20
458.2507174558021
 30
0.0
 40
0.5
100
AcDbArc
 50
270.0
 51
0.0
  0
ARC
  5
EFE
330
1F
100
AcDbEntity
  8
Rüttler
100
AcDbCircle
 10
-864.5074957750458
 20
463.7507174558021
 30
0.0
 40
2.0
100
AcDbArc
 50
180.0
 51
270.0
  0
ARC
  5
EFF
330
1F
100
AcDbEntity
  8
Rüttler
100
AcDbCircle
 10
-859.5074957750458
 20
459.7507174558021
 30
0.0
 40
1.0
100
AcDbArc
 50
270.0
 51
0.0
  0
ARC
  5
F00
330
1F
100
AcDbEntity
  8
Rüttler
100
AcDbCircle
 10
-860.5074957750458
 20
463.7507174558021
 30
0.0
 40
2.0
100
AcDbArc
 50
270.0
 51
0.0
  0
LINE
  5
F01
330
1F
100
AcDbEntity
  8
Rüttler
100
AcDbLine
 10
-866.5074957750458
 20
476.7507174558021
 30
0.0
 11
-858.5074957750458
 21
476.7507174558021
 31
0.0
  0
LINE
  5
F02
330
1F
100
AcDbEntity
  8
Rüttler
100
AcDbLine
 10
-866.5074957750458
 20
489.2507174558021
 30
0.0
 11
-903.3374588111669
 21
487.8695938419476
 31
0.0
  0
LINE
  5
F03
330
1F
100
AcDbEntity
  8
Rüttler
100
AcDbLine
 10
-903.3374588111669
 20
487.8695938419476
 30
0.0
 11
-903.3374588111669
 21
487.3664241316673
 31
0.0
  0
LINE
  5
F04
330
1F
100
AcDbEntity
  8
Rüttler
100
AcDbLine
 10
-903.622796583653
 20
486.2255282960244
 30
0.0
 11
-904.193470296248
 21
485.0846324603816
 31
0.0
  0
LINE
  5
F05
330
1F
100
AcDbEntity
  8
Rüttler
100
AcDbLine
 10
-903.3374588111669
 20
487.3664241316673
 30
0.0
 11
-903.622796583653
 21
486.2255282960244
 31
0.0
  0
LINE
  5
F06
330
1F
100
AcDbEntity
  8
Rüttler
100
AcDbLine
 10
-864.5074957750458
 20
491.7507174558021
 30
0.0
 11
-860.5074957750455
 21
491.7507174558021
 31
0.0
  0
ARC
  5
F07
330
1F
100
AcDbEntity
  8
Rüttler
100
AcDbCircle
 10
-864.5074957750458
 20
489.7507174558021
 30
0.0
 40
2.0
100
AcDbArc
 50
90.0
 51
180.0
  0
ARC
  5
F08
330
1F
100
AcDbEntity
  8
Rüttler
100
AcDbCircle
 10
-860.5074957750455
 20
489.7507174558021
 30
0.0
 40
2.0
100
AcDbArc
 50
0.0
 51
90.0
  0
LINE
  5
F09
330
1F
100
AcDbEntity
  8
Rüttler
100
AcDbLine
 10
-845.5074957750458
 20
500.7507174558021
 30
0.0
 11
-845.5074957750458
 21
493.7507174558021
 31
0.0
  0
ARC
  5
F0A
330
1F
100
AcDbEntity
  8
Rüttler
100
AcDbCircle
 10
-840.6407294599304
 20
499.792259561908
 30
0.0
 40
4.96024756441744
100
AcDbArc
 50
88.46083366687074
 51
168.858782841316
  0
ARC
  5
F0B
330
1F
100
AcDbEntity
  8
Rüttler
100
AcDbCircle
 10
-838.5074957750456
 20
379.7507174558021
 30
0.0
 40
280.0
100
AcDbArc
 50
345.8485817395108
 51
14.15141826048912
  0
LINE
  5
F0C
330
1F
100
AcDbEntity
  8
0
  6
STRICHPUNKT
 62
     7
 48
3.0
370
    18
100
AcDbLine
 10
-405.117905500206
 20
512.4324130034349
 30
0.0
 11
-405.117905500206
 21
296.0657393551501
 31
0.0
  0
ARC
  5
F0D
330
1F
100
AcDbEntity
  8
Rüttler
100
AcDbCircle
 10
-405.117905500206
 20
379.7507174558021
 30
0.0
 40
78.0
100
AcDbArc
 50
154.4908787580868
 51
180.0
  0
LINE
  5
F0E
330
1F
100
AcDbEntity
  8
Rüttler
100
AcDbLine
 10
-686.5074957750455
 20
301.7507174558017
 30
0.0
 11
-686.5074957750455
 21
457.7507174558021
 31
0.0
  0
LINE
  5
F0F
330
1F
100
AcDbEntity
  8
Rüttler
100
AcDbLine
 10
-702.5074957750454
 20
301.7507174558021
 30
0.0
 11
-702.5074957750454
 21
457.7507174558021
 31
0.0
  0
LINE
  5
F10
330
1F
100
AcDbEntity
  8
Rüttler
100
AcDbLine
 10
-694.5074957750455
 20
301.7507174558021
 30
0.0
 11
-694.5074957750455
 21
457.7507174558021
 31
0.0
  0
LINE
  5
F11
330
1F
100
AcDbEntity
  8
Rüttler
100
AcDbLine
 10
-685.0074957750596
 20
301.7507174558022
 30
0.0
 11
-685.0074957750455
 21
457.7507174558021
 31
0.0
  0
LINE
  5
F12
330
1F
100
AcDbEntity
  8
Rüttler
370
    15
100
AcDbLine
 10
-735.2543378355545
 20
457.7600143079973
 30
0.0
 11
-735.2543378355545
 21
368.7600143079973
 31
0.0
  0
LINE
  5
F13
330
1F
100
AcDbEntity
  8
Rüttler
370
    15
100
AcDbLine
 10
-745.2338061498942
 20
448.4004923818537
 30
0.0
 11
-745.2338061498943
 21
368.7507174558021
 31
0.0
  0
LINE
  5
F15
330
1F
100
AcDbEntity
  8
Rüttler
100
AcDbLine
 10
-685.0074957750596
 20
301.7507174558022
 30
0.0
 11
-686.5074957750455
 21
301.7507174558021
 31
0.0
  0
LINE
  5
F16
330
1F
100
AcDbEntity
  8
0
  6
STRICHPUNKT
 48
2.0
370
    18
100
AcDbLine
 10
-673.0074957750471
 20
321.0608546173204
 30
0.0
 11
-737.3702048963555
 21
321.0608546173152
 31
0.0
  0
LINE
  5
F17
330
1F
100
AcDbEntity
  8
0
  6
STRICHPUNKT
 62
     7
 48
3.0
370
    18
100
AcDbLine
 10
-744.5074957750455
 20
372.6365161380197
 30
0.0
 11
-744.5074957750455
 21
291.55812649995
 31
0.0
  0
LINE
  5
F18
330
1F
100
AcDbEntity
  8
Rüttler
100
AcDbLine
 10
-724.5074957750455
 20
361.7507174558021
 30
0.0
 11
-724.5074957750455
 21
296.7507174558021
 31
0.0
  0
ARC
  5
F19
330
1F
100
AcDbEntity
  8
Rüttler
100
AcDbCircle
 10
-835.3608587762918
 20
322.9907232191054
 30
0.0
 40
112.8698628222399
100
AcDbArc
 50
349.1533298016427
 51
10.84667019835725
  0
LINE
  5
F1A
330
1F
100
AcDbEntity
  8
Rüttler
100
AcDbLine
 10
-764.5074957750455
 20
361.7507174558021
 30
0.0
 11
-764.5074957750455
 21
296.7507174558021
 31
0.0
  0
LINE
  5
F1B
330
1F
100
AcDbEntity
  8
Rüttler
100
AcDbLine
 10
-764.5074957750455
 20
296.7507174558021
 30
0.0
 11
-724.5074957750455
 21
296.7507174558021
 31
0.0
  0
LINE
  5
F1C
330
1F
100
AcDbEntity
  8
Rüttler
100
AcDbLine
 10
-724.5074957750455
 20
301.7507174558022
 30
0.0
 11
-686.5074957750455
 21
301.7507174558017
 31
0.0
  0
LINE
  5
F1D
330
1F
100
AcDbEntity
  8
Rüttler
100
AcDbLine
 10
-758.5074957750455
 20
368.7507174558021
 30
0.0
 11
-730.5074957750455
 21
368.7507174558021
 31
0.0
  0
LINE
  5
F1E
330
1F
100
AcDbEntity
  8
Rüttler
100
AcDbLine
 10
-760.5074957750455
 20
365.7507174558021
 30
0.0
 11
-728.5074957750455
 21
365.7507174558021
 31
0.0
  0
ARC
  5
F1F
330
1F
100
AcDbEntity
  8
Rüttler
100
AcDbCircle
 10
-760.5074957750455
 20
361.7507174558021
 30
0.0
 40
4.0
100
AcDbArc
 50
90.0
 51
180.0
  0
LINE
  5
F20
330
1F
100
AcDbEntity
  8
Rüttler
100
AcDbLine
 10
-758.5074957750455
 20
368.7507174558021
 30
0.0
 11
-758.5074957750455
 21
367.5507174558021
 31
0.0
  0
LINE
  5
F21
330
1F
100
AcDbEntity
  8
Rüttler
100
AcDbLine
 10
-760.5074957750455
 20
365.7507174558021
 30
0.0
 11
-760.3074957750455
 21
365.7507174558021
 31
0.0
  0
ARC
  5
F22
330
1F
100
AcDbEntity
  8
Rüttler
100
AcDbCircle
 10
-760.3074957750455
 20
367.5507174558021
 30
0.0
 40
1.8
100
AcDbArc
 50
270.0
 51
0.0
  0
LINE
  5
F23
330
1F
100
AcDbEntity
  8
Rüttler
370
    15
100
AcDbLine
 10
-702.5074957750458
 20
344.2307289824087
 30
0.0
 11
-724.5074957750455
 21
344.2307289824087
 31
0.0
  0
ARC
  5
F24
330
1F
100
AcDbEntity
  8
Rüttler
100
AcDbCircle
 10
-728.5074957750455
 20
361.7507174558021
 30
0.0
 40
4.0
100
AcDbArc
 50
0.0
 51
90.0
  0
ARC
  5
F25
330
1F
100
AcDbEntity
  8
Rüttler
100
AcDbCircle
 10
-728.7074957750455
 20
367.5507174558021
 30
0.0
 40
1.8
100
AcDbArc
 50
180.0
 51
270.0
  0
LINE
  5
F26
330
1F
100
AcDbEntity
  8
Rüttler
100
AcDbLine
 10
-728.5074957750455
 20
365.7507174558021
 30
0.0
 11
-728.7074957750455
 21
365.7507174558021
 31
0.0
  0
LINE
  5
F27
330
1F
100
AcDbEntity
  8
Rüttler
100
AcDbLine
 10
-730.5074957750455
 20
368.7507174558021
 30
0.0
 11
-730.5074957750455
 21
367.5507174558021
 31
0.0
  0
LINE
  5
F28
330
1F
100
AcDbEntity
  8
Rüttler
100
AcDbLine
 10
-683.407495775046
 20
312.5608546173189
 30
0.0
 11
-683.4074957750483
 21
329.5608546173188
 31
0.0
  0
LINE
  5
F29
330
1F
100
AcDbEntity
  8
Rüttler
100
AcDbLine
 10
-685.0074957750483
 20
329.5608546173188
 30
0.0
 11
-685.0074957750459
 21
312.5608546173186
 31
0.0
  0
LINE
  5
F2A
330
1F
100
AcDbEntity
  8
Rüttler
100
AcDbLine
 10
-682.0074957750492
 20
342.2020918662663
 30
0.0
 11
-682.007495775048
 21
327.560854617319
 31
0.0
  0
LINE
  5
F2B
330
1F
100
AcDbEntity
  8
Rüttler
100
AcDbLine
 10
-574.7618796977351
 20
305.2507174558021
 30
0.0
 11
-684.0074957750455
 21
305.2507174558021
 31
0.0
  0
LINE
  5
F2C
330
1F
100
AcDbEntity
  8
Rüttler
100
AcDbLine
 10
-682.0074957750469
 20
314.5608546173191
 30
0.0
 11
-682.007495775046
 21
305.2507174558021
 31
0.0
  0
ARC
  5
F2D
330
1F
100
AcDbEntity
  8
Rüttler
100
AcDbCircle
 10
-684.0074957750455
 20
304.2507174558021
 30
0.0
 40
1.0
100
AcDbArc
 50
90.0
 51
180.0
  0
LINE
  5
F2E
330
1F
100
AcDbEntity
  8
Rüttler
100
AcDbLine
 10
-683.4074957750463
 20
314.5608546173189
 30
0.0
 11
-676.2074957750464
 21
314.5608546173199
 31
0.0
  0
LINE
  5
F2F
330
1F
100
AcDbEntity
  8
Rüttler
  6
VERDECKT
 62
     7
 48
0.3
370
    15
100
AcDbLine
 10
-679.4074957750468
 20
317.5967530021817
 30
0.0
 11
-675.4074957750468
 21
317.5967530021822
 31
0.0
  0
LINE
  5
F30
330
1F
100
AcDbEntity
  8
Rüttler
  6
VERDECKT
 62
     7
 48
0.3
370
    15
100
AcDbLine
 10
-675.407495775047
 20
319.3288038097512
 30
0.0
 11
-679.407495775047
 21
319.3288038097506
 31
0.0
  0
LINE
  5
F31
330
1F
100
AcDbEntity
  8
Rüttler
100
AcDbLine
 10
-676.2074957750483
 20
327.5608546173199
 30
0.0
 11
-683.407495775048
 21
327.5608546173188
 31
0.0
  0
LINE
  5
F32
330
1F
100
AcDbEntity
  8
Rüttler
  6
VERDECKT
 62
     7
 48
0.3
370
    15
100
AcDbLine
 10
-675.4074957750476
 20
324.5249562324577
 30
0.0
 11
-679.4074957750476
 21
324.5249562324571
 31
0.0
  0
LINE
  5
F33
330
1F
100
AcDbEntity
  8
Rüttler
  6
VERDECKT
 62
     7
 48
0.3
370
    15
100
AcDbLine
 10
-675.4074957750474
 20
322.7929054248888
 30
0.0
 11
-679.4074957750474
 21
322.7929054248883
 31
0.0
  0
ARC
  5
F34
330
1F
100
AcDbEntity
  8
Rüttler
  6
VERDECKT
 62
     7
 48
0.3
370
    15
100
AcDbCircle
 10
-676.4074957750472
 20
321.0608546173199
 30
0.0
 40
3.464101615137725
100
AcDbArc
 50
150.000000000011
 51
210.0000000000067
  0
LINE
  5
F35
330
1F
100
AcDbEntity
  8
Rüttler
100
AcDbLine
 10
-683.407495775048
 20
327.5608546173188
 30
0.0
 11
-683.4074957750463
 21
314.5608546173189
 31
0.0
  0
LINE
  5
F36
330
1F
100
AcDbEntity
  8
Rüttler
  6
VERDECKT
 62
     7
 48
0.3
370
    15
100
AcDbLine
 10
-679.4074957750468
 20
317.5967530021817
 30
0.0
 11
-681.4074957750472
 21
321.0608546173192
 31
0.0
  0
LINE
  5
F37
330
1F
100
AcDbEntity
  8
Rüttler
100
AcDbLine
 10
-685.0074957750459
 20
312.5608546173186
 30
0.0
 11
-683.407495775046
 21
312.5608546173189
 31
0.0
  0
ARC
  5
F38
330
1F
100
AcDbEntity
  8
Rüttler
  6
VERDECKT
 62
     7
 48
0.3
370
    15
100
AcDbCircle
 10
-677.9074957750468
 20
318.4627784059663
 30
0.0
 40
1.732050807568906
100
AcDbArc
 50
150.000000000011
 51
210.0000000000067
  0
ARC
  5
F39
330
1F
100
AcDbEntity
  8
Rüttler
  6
VERDECKT
 62
     7
 48
0.3
370
    15
100
AcDbCircle
 10
-677.9074957750474
 20
323.658930828673
 30
0.0
 40
1.732050807568867
100
AcDbArc
 50
150.000000000011
 51
210.0000000000067
  0
LINE
  5
F3A
330
1F
100
AcDbEntity
  8
Rüttler
  6
VERDECKT
 62
     7
 48
0.3
370
    15
100
AcDbLine
 10
-679.4074957750476
 20
324.5249562324571
 30
0.0
 11
-681.4074957750472
 21
321.0608546173192
 31
0.0
  0
LINE
  5
F3B
330
1F
100
AcDbEntity
  8
Rüttler
100
AcDbLine
 10
-675.4074957750465
 20
315.36085461732
 30
0.0
 11
-675.4074957750479
 21
326.76085461732
 31
0.0
  0
ARC
  5
F3C
330
1F
100
AcDbEntity
  8
Rüttler
100
AcDbCircle
 10
-676.2074957750467
 20
315.3608546173198
 30
0.0
 40
0.8000000000000113
100
AcDbArc
 50
270.000000000013
 51
0.0000000000065138
  0
ARC
  5
F3D
330
1F
100
AcDbEntity
  8
Rüttler
100
AcDbCircle
 10
-676.207495775048
 20
326.76085461732
 30
0.0
 40
0.8000000000000113
100
AcDbArc
 50
0.0000000000065138
 51
90.00000000001303
  0
ARC
  5
F3E
330
1F
100
AcDbEntity
  8
Rüttler
100
AcDbCircle
 10
-574.7618796977351
 20
313.2507174558021
 30
0.0
 40
8.0
100
AcDbArc
 50
270.0
 51
345.8485817395077
  0
LINE
  5
F3F
330
1F
100
AcDbEntity
  8
Rüttler
100
AcDbLine
 10
-685.0074957750483
 20
329.5608546173188
 30
0.0
 11
-683.4074957750483
 21
329.5608546173188
 31
0.0
  0
ARC
  5
F40
330
1F
100
AcDbEntity
  8
Rüttler
100
AcDbCircle
 10
-680.4524077031755
 20
337.9206752279179
 30
0.0
 40
4.555088071873115
100
AcDbArc
 50
109.9619383924209
 51
180.0
  0
CIRCLE
  5
F41
330
1F
100
AcDbEntity
  8
Rüttler
100
AcDbCircle
 10
-463.8077683386893
 20
321.0608546173188
 30
0.0
 40
6.5
  0
CIRCLE
  5
F42
330
1F
100
AcDbEntity
  8
Rüttler
100
AcDbCircle
 10
-463.8077683386893
 20
321.0608546173188
 30
0.0
 40
3.5
  0
LINE
  5
F43
330
1F
100
AcDbEntity
  8
Rüttler
100
AcDbLine
 10
-460.3436667235516
 20
321.0608546173188
 30
0.0
 11
-462.0757175311207
 21
318.0608546173187
 31
0.0
  0
LINE
  5
F44
330
1F
100
AcDbEntity
  8
Rüttler
100
AcDbLine
 10
-462.0757175311207
 20
324.0608546173187
 30
0.0
 11
-460.3436667235516
 21
321.0608546173186
 31
0.0
  0
LINE
  5
F45
330
1F
100
AcDbEntity
  8
Rüttler
100
AcDbLine
 10
-464.5211554819686
 20
311.0863331358739
 30
0.0
 11
-442.6665310897285
 21
310.3231528351436
 31
0.0
  0
LINE
  5
F46
330
1F
100
AcDbEntity
  8
Rüttler
100
AcDbLine
 10
-525.117905500206
 20
361.7507174558021
 30
0.0
 11
-525.117905500206
 21
296.7507174558021
 31
0.0
  0
LINE
  5
F47
330
1F
100
AcDbEntity
  8
0
  6
STRICHPUNKT
 48
3.0
370
    18
100
AcDbLine
 10
-505.117905500206
 20
372.6365161380197
 30
0.0
 11
-505.117905500206
 21
291.55812649995
 31
0.0
  0
LINE
  5
F48
330
1F
100
AcDbEntity
  8
Rüttler
100
AcDbLine
 10
-473.7822898201341
 20
320.3474674740395
 30
0.0
 11
-474.5454701208648
 21
342.20209186628
 31
0.0
  0
LINE
  5
F49
330
1F
100
AcDbEntity
  8
Rüttler
100
AcDbLine
 10
-525.117905500206
 20
296.7507174558021
 30
0.0
 11
-475.117905500206
 21
296.7507174558022
 31
0.0
  0
ARC
  5
F4A
330
1F
100
AcDbEntity
  8
Rüttler
100
AcDbCircle
 10
-463.8077683386893
 20
321.0608546173186
 30
0.0
 40
10.0
100
AcDbArc
 50
179.9091178420651
 51
270.0908821579413
  0
ARC
  5
F4B
330
1F
100
AcDbEntity
  8
Rüttler
100
AcDbCircle
 10
-472.6179055002059
 20
299.2507174558022
 30
0.0
 40
2.5
100
AcDbArc
 50
90.0
 51
180.0
  0
LINE
  5
F4C
330
1F
100
AcDbEntity
  8
Rüttler
100
AcDbLine
 10
-475.117905500206
 20
299.2507174558021
 30
0.0
 11
-475.117905500206
 21
296.7507174558022
 31
0.0
  0
LINE
  5
F4D
330
1F
100
AcDbEntity
  8
Rüttler
100
AcDbLine
 10
-465.5398191462584
 20
318.0608546173187
 30
0.0
 11
-467.271869953827
 21
321.0608546173186
 31
0.0
  0
LINE
  5
F4E
330
1F
100
AcDbEntity
  8
Rüttler
100
AcDbLine
 10
-467.271869953827
 20
321.0608546173186
 30
0.0
 11
-465.5398191462584
 21
324.0608546173187
 31
0.0
  0
LINE
  5
F4F
330
1F
100
AcDbEntity
  8
Rüttler
100
AcDbLine
 10
-462.0757175311207
 20
318.0608546173187
 30
0.0
 11
-465.5398191462584
 21
318.0608546173187
 31
0.0
  0
LINE
  5
F50
330
1F
100
AcDbEntity
  8
Rüttler
100
AcDbLine
 10
-465.5398191462584
 20
324.0608546173187
 30
0.0
 11
-462.0757175311207
 21
324.0608546173187
 31
0.0
  0
LINE
  5
F51
330
1F
100
AcDbEntity
  8
Rüttler
100
AcDbLine
 10
-519.1179055002059
 20
368.7507174558021
 30
0.0
 11
-491.117905500206
 21
368.7507174558021
 31
0.0
  0
LINE
  5
F52
330
1F
100
AcDbEntity
  8
Rüttler
100
AcDbLine
 10
-520.9179055002058
 20
365.7507174558021
 30
0.0
 11
-491.117905500206
 21
365.7507174558021
 31
0.0
  0
ARC
  5
F53
330
1F
100
AcDbEntity
  8
Rüttler
100
AcDbCircle
 10
-521.117905500206
 20
361.7507174558021
 30
0.0
 40
4.0
100
AcDbArc
 50
90.0
 51
180.0
  0
LINE
  5
F54
330
1F
100
AcDbEntity
  8
Rüttler
100
AcDbLine
 10
-519.1179055002059
 20
368.7507174558021
 30
0.0
 11
-519.1179055002059
 21
367.5507174558021
 31
0.0
  0
LINE
  5
F55
330
1F
100
AcDbEntity
  8
Rüttler
100
AcDbLine
 10
-521.117905500206
 20
365.7507174558021
 30
0.0
 11
-520.9179055002058
 21
365.7507174558021
 31
0.0
  0
ARC
  5
F56
330
1F
100
AcDbEntity
  8
Rüttler
100
AcDbCircle
 10
-520.9179055002058
 20
367.5507174558021
 30
0.0
 40
1.8
100
AcDbArc
 50
270.0
 51
0.0
  0
LINE
  5
F57
330
1F
100
AcDbEntity
  8
Rüttler
100
AcDbLine
 10
-483.117905500206
 20
360.7507174558022
 30
0.0
 11
-480.0912159839936
 21
358.233219573809
 31
0.0
  0
ARC
  5
F58
330
1F
100
AcDbEntity
  8
Rüttler
100
AcDbCircle
 10
-484.5393783910556
 20
341.8530968992549
 30
0.0
 40
10.0
100
AcDbArc
 50
2.000000000000233
 51
25.50912124195946
  0
ARC
  5
F59
330
1F
100
AcDbEntity
  8
Rüttler
100
AcDbCircle
 10
-405.117905500206
 20
379.7507174558021
 30
0.0
 40
78.0
100
AcDbArc
 50
196.0135904472249
 51
205.5091212419131
  0
ARC
  5
F5A
330
1F
100
AcDbEntity
  8
Rüttler
100
AcDbCircle
 10
-491.117905500206
 20
373.7507174558021
 30
0.0
 40
8.0
100
AcDbArc
 50
270.0
 51
0.0
  0
ARC
  5
F5B
330
1F
100
AcDbEntity
  8
Rüttler
100
AcDbCircle
 10
-489.3179055002057
 20
367.5507174558022
 30
0.0
 40
1.8
100
AcDbArc
 50
180.0
 51
251.3683219281212
  0
LINE
  5
F5C
330
1F
100
AcDbEntity
  8
Rüttler
100
AcDbLine
 10
-491.117905500206
 20
368.7507174558021
 30
0.0
 11
-491.117905500206
 21
367.5507174558022
 31
0.0
  0
LINE
  5
F5D
330
1F
100
AcDbEntity
  8
Rüttler
100
AcDbLine
 10
-483.117905500206
 20
379.7507174558021
 30
0.0
 11
-483.117905500206
 21
360.7507174558022
 31
0.0
  0
ARC
  5
F5E
330
1F
100
AcDbEntity
  8
Rüttler
100
AcDbCircle
 10
-405.117905500206
 20
379.7507174558021
 30
0.0
 40
78.0
100
AcDbArc
 50
244.4908787580691
 51
295.5091212419191
  0
ARC
  5
F5F
330
1F
100
AcDbEntity
  8
Rüttler
100
AcDbCircle
 10
-443.0155260567537
 20
300.3292445649528
 30
0.0
 40
10.0
100
AcDbArc
 50
64.49087875808088
 51
87.99999999999636
  0
ARC
  5
F60
330
1F
100
AcDbEntity
  8
Rüttler
100
AcDbCircle
 10
-367.2202849436587
 20
300.3292445649525
 30
0.0
 40
10.0
100
AcDbArc
 50
92.00000000000365
 51
115.5091212419191
  0
LINE
  5
F61
330
1F
100
AcDbEntity
  8
Rüttler
100
AcDbLine
 10
-349.4280426617226
 20
319.3288038097498
 30
0.0
 11
-349.4280426617226
 21
322.7929054248874
 31
0.0
  0
LINE
  5
F62
330
1F
100
AcDbEntity
  8
Rüttler
100
AcDbLine
 10
-420.117905500206
 20
493.7507174558021
 30
0.0
 11
-420.3515493129628
 21
480.3652723877003
 31
3.346871011691489
  0
LINE
  5
F63
330
1F
100
AcDbEntity
  8
Rüttler
100
AcDbLine
 10
-390.117905500206
 20
493.7507174558021
 30
0.0
 11
-389.8842616874492
 21
480.3652723876995
 31
3.346871011691674
  0
LINE
  5
F64
330
1F
100
AcDbEntity
  8
Rüttler
100
AcDbLine
 10
-685.0074957750458
 20
457.7507174558021
 30
0.0
 11
-686.5074957750455
 21
457.7507174558021
 31
0.0
  0
LINE
  5
F65
330
1F
100
AcDbEntity
  8
0
  6
STRICHPUNKT
 48
2.0
370
    18
100
AcDbLine
 10
-673.0074957750471
 20
438.4405802942839
 30
0.0
 11
-737.3702048963555
 21
438.440580294289
 31
0.0
  0
LINE
  5
F66
330
1F
100
AcDbEntity
  8
Rüttler
100
AcDbLine
 10
-727.5074957750458
 20
415.2707059291954
 30
0.0
 11
-727.5074957750454
 21
457.7507174558021
 31
0.0
  0
ARC
  5
F67
330
1F
100
AcDbEntity
  8
Rüttler
100
AcDbCircle
 10
-769.7488409755437
 20
436.5107116924987
 30
0.0
 40
47.28074755302426
100
AcDbArc
 50
333.3056052622227
 51
26.69439473777722
  0
ARC
  5
F68
330
1F
100
AcDbEntity
  8
Rüttler
100
AcDbCircle
 10
-745.2338061498942
 20
458.4004923818537
 30
0.0
 40
10.0
100
AcDbArc
 50
270.0
 51
356.3278174022729
  0
LINE
  5
F69
330
1F
100
AcDbEntity
  8
Rüttler
100
AcDbLine
 10
-686.5074957750455
 20
452.7507174558021
 30
0.0
 11
-686.5074957750455
 21
457.7507174558021
 31
0.0
  0
LINE
  5
F6A
330
1F
100
AcDbEntity
  8
Rüttler
370
    15
100
AcDbLine
 10
-702.5074957750458
 20
415.2707059291954
 30
0.0
 11
-727.5074957750458
 21
415.2707059291954
 31
0.0
  0
ARC
  5
F6B
330
1F
100
AcDbEntity
  8
Rüttler
100
AcDbCircle
 10
-734.8232338893381
 20
467.7507174558021
 30
0.0
 40
10.0
100
AcDbArc
 50
181.4999999999995
 51
270.0
  0
LINE
  5
F6C
330
1F
100
AcDbEntity
  8
Rüttler
100
AcDbLine
 10
-745.5074957750455
 20
493.7507174558021
 30
0.0
 11
-744.8198071390937
 21
467.4889479727234
 31
0.0
  0
LINE
  5
F6D
330
1F
100
AcDbEntity
  8
Rüttler
100
AcDbLine
 10
-745.5074957750455
 20
500.7507174558021
 30
0.0
 11
-745.5074957750455
 21
493.7507174558021
 31
0.0
  0
ARC
  5
F6E
330
1F
100
AcDbEntity
  8
Rüttler
100
AcDbCircle
 10
-749.5074957750455
 20
500.7507174558021
 30
0.0
 40
4.0
100
AcDbArc
 50
0.0
 51
90.0
  0
LINE
  5
F6F
330
1F
100
AcDbEntity
  8
Rüttler
100
AcDbLine
 10
-715.5074957750455
 20
457.7507174558021
 30
0.0
 11
-686.5074957750455
 21
457.7507174558021
 31
0.0
  0
LINE
  5
F70
330
1F
100
AcDbEntity
  8
Rüttler
100
AcDbLine
 10
-734.8232338893381
 20
457.7507174558021
 30
0.0
 11
-715.5074957750455
 21
457.7507174558023
 31
0.0
  0
ARC
  5
F71
330
1F
100
AcDbEntity
  8
Rüttler
100
AcDbCircle
 10
-574.7618796977351
 20
446.2507174558021
 30
0.0
 40
8.0
100
AcDbArc
 50
14.15141826048912
 51
90.0
  0
LINE
  5
F72
330
1F
100
AcDbEntity
  8
Rüttler
100
AcDbLine
 10
-682.0074957750469
 20
444.9405802942851
 30
0.0
 11
-682.007495775046
 21
454.2507174558021
 31
0.0
  0
LINE
  5
F73
330
1F
100
AcDbEntity
  8
Rüttler
100
AcDbLine
 10
-682.0074957750492
 20
417.2993430453379
 30
0.0
 11
-682.007495775048
 21
431.9405802942852
 31
0.0
  0
ARC
  5
F74
330
1F
100
AcDbEntity
  8
Rüttler
100
AcDbCircle
 10
-680.4524077031755
 20
421.5807596836863
 30
0.0
 40
4.555088071873115
100
AcDbArc
 50
180.0
 51
250.038061607579
  0
LINE
  5
F75
330
1F
100
AcDbEntity
  8
Rüttler
100
AcDbLine
 10
-683.407495775048
 20
431.9405802942854
 30
0.0
 11
-683.4074957750463
 21
444.9405802942854
 31
0.0
  0
LINE
  5
F76
330
1F
100
AcDbEntity
  8
Rüttler
100
AcDbLine
 10
-675.4074957750465
 20
444.1405802942843
 30
0.0
 11
-675.4074957750479
 21
432.7405802942841
 31
0.0
  0
LINE
  5
F77
330
1F
100
AcDbEntity
  8
Rüttler
100
AcDbLine
 10
-685.0074957750483
 20
429.9405802942855
 30
0.0
 11
-685.0074957750459
 21
446.9405802942856
 31
0.0
  0
LINE
  5
F78
330
1F
100
AcDbEntity
  8
Rüttler
100
AcDbLine
 10
-683.407495775046
 20
446.9405802942853
 30
0.0
 11
-683.4074957750483
 21
429.9405802942853
 31
0.0
  0
ARC
  5
F79
330
1F
100
AcDbEntity
  8
Rüttler
  6
VERDECKT
 62
     7
 48
0.3
370
    15
100
AcDbCircle
 10
-676.4074957750472
 20
438.4405802942843
 30
0.0
 40
3.464101615137725
100
AcDbArc
 50
149.9999999999932
 51
209.9999999999889
  0
LINE
  5
F7A
330
1F
100
AcDbEntity
  8
Rüttler
  6
VERDECKT
 62
     7
 48
0.3
370
    15
100
AcDbLine
 10
-679.4074957750476
 20
434.9764786791471
 30
0.0
 11
-681.4074957750472
 21
438.440580294285
 31
0.0
  0
LINE
  5
F7B
330
1F
100
AcDbEntity
  8
Rüttler
  6
VERDECKT
 62
     7
 48
0.3
370
    15
100
AcDbLine
 10
-675.4074957750474
 20
436.7085294867154
 30
0.0
 11
-679.4074957750474
 21
436.7085294867159
 31
0.0
  0
LINE
  5
F7C
330
1F
100
AcDbEntity
  8
Rüttler
  6
VERDECKT
 62
     7
 48
0.3
370
    15
100
AcDbLine
 10
-675.4074957750476
 20
434.9764786791466
 30
0.0
 11
-679.4074957750476
 21
434.9764786791471
 31
0.0
  0
LINE
  5
F7D
330
1F
100
AcDbEntity
  8
Rüttler
100
AcDbLine
 10
-676.2074957750483
 20
431.9405802942843
 30
0.0
 11
-683.407495775048
 21
431.9405802942854
 31
0.0
  0
ARC
  5
F7E
330
1F
100
AcDbEntity
  8
Rüttler
  6
VERDECKT
 62
     7
 48
0.3
370
    15
100
AcDbCircle
 10
-677.9074957750474
 20
435.8425040829311
 30
0.0
 40
1.732050807568867
100
AcDbArc
 50
149.9999999999932
 51
209.9999999999889
  0
LINE
  5
F7F
330
1F
100
AcDbEntity
  8
Rüttler
100
AcDbLine
 10
-685.0074957750483
 20
429.9405802942855
 30
0.0
 11
-683.4074957750483
 21
429.9405802942853
 31
0.0
  0
ARC
  5
F80
330
1F
100
AcDbEntity
  8
Rüttler
100
AcDbCircle
 10
-676.207495775048
 20
432.7405802942843
 30
0.0
 40
0.8000000000000113
100
AcDbArc
 50
269.999999999987
 51
359.9999999999935
  0
LINE
  5
F81
330
1F
100
AcDbEntity
  8
Rüttler
  6
VERDECKT
 62
     7
 48
0.3
370
    15
100
AcDbLine
 10
-675.407495775047
 20
440.172631101853
 30
0.0
 11
-679.407495775047
 21
440.1726311018536
 31
0.0
  0
LINE
  5
F82
330
1F
100
AcDbEntity
  8
Rüttler
  6
VERDECKT
 62
     7
 48
0.3
370
    15
100
AcDbLine
 10
-679.4074957750468
 20
441.9046819094226
 30
0.0
 11
-675.4074957750468
 21
441.904681909422
 31
0.0
  0
LINE
  5
F83
330
1F
100
AcDbEntity
  8
Rüttler
100
AcDbLine
 10
-683.4074957750463
 20
444.9405802942854
 30
0.0
 11
-676.2074957750464
 21
444.9405802942843
 31
0.0
  0
LINE
  5
F84
330
1F
100
AcDbEntity
  8
Rüttler
  6
VERDECKT
 62
     7
 48
0.3
370
    15
100
AcDbLine
 10
-679.4074957750468
 20
441.9046819094226
 30
0.0
 11
-681.4074957750472
 21
438.440580294285
 31
0.0
  0
ARC
  5
F85
330
1F
100
AcDbEntity
  8
Rüttler
  6
VERDECKT
 62
     7
 48
0.3
370
    15
100
AcDbCircle
 10
-677.9074957750468
 20
441.0386565056379
 30
0.0
 40
1.732050807568906
100
AcDbArc
 50
149.9999999999932
 51
209.9999999999889
  0
LINE
  5
F86
330
1F
100
AcDbEntity
  8
Rüttler
100
AcDbLine
 10
-685.0074957750459
 20
446.9405802942856
 30
0.0
 11
-683.407495775046
 21
446.9405802942853
 31
0.0
  0
ARC
  5
F87
330
1F
100
AcDbEntity
  8
Rüttler
100
AcDbCircle
 10
-676.2074957750467
 20
444.1405802942844
 30
0.0
 40
0.8000000000000113
100
AcDbArc
 50
359.9999999999935
 51
89.99999999998697
  0
LINE
  5
F88
330
1F
100
AcDbEntity
  8
Rüttler
100
AcDbLine
 10
-574.7618796977351
 20
454.2507174558021
 30
0.0
 11
-684.0074957750458
 21
454.2507174558021
 31
0.0
  0
ARC
  5
F89
330
1F
100
AcDbEntity
  8
Rüttler
100
AcDbCircle
 10
-684.0074957750458
 20
455.2507174558021
 30
0.0
 40
1.0
100
AcDbArc
 50
180.0
 51
270.0
  0
CIRCLE
  5
F8B
330
1F
100
AcDbEntity
  8
Rüttler
100
AcDbCircle
 10
-463.8077683386893
 20
438.4405802942856
 30
0.0
 40
6.5
  0
CIRCLE
  5
F8C
330
1F
100
AcDbEntity
  8
Rüttler
100
AcDbCircle
 10
-463.8077683386893
 20
438.4405802942856
 30
0.0
 40
3.5
  0
LINE
  5
F8D
330
1F
100
AcDbEntity
  8
Rüttler
100
AcDbLine
 10
-464.5211554819682
 20
448.4151017757305
 30
0.0
 11
-442.6665310897281
 21
449.1782820764609
 31
0.0
  0
LINE
  5
F8E
330
1F
100
AcDbEntity
  8
Rüttler
100
AcDbLine
 10
-473.7822898201341
 20
439.1539674375648
 30
0.0
 11
-474.5454701208643
 21
417.299343045325
 31
0.0
  0
ARC
  5
F8F
330
1F
100
AcDbEntity
  8
Rüttler
100
AcDbCircle
 10
-484.5393783910551
 20
417.64833801235
 30
0.0
 40
10.0
100
AcDbArc
 50
334.4908787580405
 51
357.9999999999997
  0
LINE
  5
F90
330
1F
100
AcDbEntity
  8
Rüttler
100
AcDbLine
 10
-466.8077683386893
 20
436.7085294867169
 30
0.0
 11
-466.8077683386893
 21
440.1726311018546
 31
0.0
  0
LINE
  5
F91
330
1F
100
AcDbEntity
  8
Rüttler
100
AcDbLine
 10
-460.8077683386893
 20
440.1726311018544
 30
0.0
 11
-460.8077683386893
 21
436.7085294867169
 31
0.0
  0
LINE
  5
F92
330
1F
100
AcDbEntity
  8
Rüttler
100
AcDbLine
 10
-463.8077683386893
 20
434.9764786791479
 30
0.0
 11
-466.8077683386893
 21
436.7085294867167
 31
0.0
  0
LINE
  5
F93
330
1F
100
AcDbEntity
  8
Rüttler
100
AcDbLine
 10
-460.8077683386893
 20
436.7085294867169
 30
0.0
 11
-463.8077683386893
 21
434.9764786791479
 31
0.0
  0
ARC
  5
F94
330
1F
100
AcDbEntity
  8
Rüttler
100
AcDbCircle
 10
-463.8077683386893
 20
438.4405802942857
 30
0.0
 40
10.0
100
AcDbArc
 50
89.90911784205868
 51
180.090882157938
  0
LINE
  5
F95
330
1F
100
AcDbEntity
  8
Rüttler
100
AcDbLine
 10
-466.8077683386893
 20
440.1726311018546
 30
0.0
 11
-463.8077683386893
 21
441.9046819094234
 31
0.0
  0
LINE
  5
F96
330
1F
100
AcDbEntity
  8
Rüttler
100
AcDbLine
 10
-463.8077683386893
 20
441.9046819094234
 30
0.0
 11
-460.8077683386893
 21
440.1726311018544
 31
0.0
  0
ARC
  5
F97
330
1F
100
AcDbEntity
  8
Rüttler
100
AcDbCircle
 10
-405.117905500206
 20
379.7507174558021
 30
0.0
 40
78.0
100
AcDbArc
 50
64.49087875806914
 51
76.65167016972258
  0
ARC
  5
F98
330
1F
100
AcDbEntity
  8
Rüttler
100
AcDbCircle
 10
-405.117905500206
 20
379.7507174558021
 30
0.0
 40
78.0
100
AcDbArc
 50
100.1581684790521
 51
115.5091212419191
  0
ARC
  5
F99
330
1F
100
AcDbEntity
  8
Rüttler
100
AcDbCircle
 10
-443.0155260567528
 20
459.1721903466519
 30
0.0
 40
10.0
100
AcDbArc
 50
272.0000000000035
 51
295.5091212419191
  0
LINE
  5
F9A
330
1F
100
AcDbEntity
  8
Rüttler
100
AcDbLine
 10
-348.1600934692912
 20
435.4405802942856
 30
0.0
 11
-349.8921442768603
 21
438.4405802942857
 31
0.0
  0
ARC
  5
F9B
330
1F
100
AcDbEntity
  8
Rüttler
100
AcDbCircle
 10
-367.2202849436578
 20
459.1721903466516
 30
0.0
 40
10.0
100
AcDbArc
 50
244.4908787580808
 51
267.9999999999963
  0
LINE
  5
F9C
330
1F
100
AcDbEntity
  8
Rüttler
100
AcDbLine
 10
-349.8921442768603
 20
438.4405802942856
 30
0.0
 11
-348.1600934692912
 21
441.4405802942856
 31
0.0
  0
LINE
  5
F9D
330
1F
100
AcDbEntity
  8
Rüttler
100
AcDbLine
 10
-412.9121341342658
 20
491.7507174558021
 30
0.0
 11
-397.3236768661461
 21
491.7507174558021
 31
0.0
  0
CIRCLE
  5
F9E
330
1F
100
AcDbEntity
  8
Rüttler
100
AcDbCircle
 10
-405.117905500206
 20
476.7507174558021
 30
0.0
 40
7.0
  0
LINE
  5
F9F
330
1F
100
AcDbEntity
  8
Rüttler
100
AcDbLine
 10
-397.3236768661461
 20
461.7507174558021
 30
0.0
 11
-412.9121341342663
 21
461.7507174558021
 31
0.0
  0
CIRCLE
  5
FA0
330
1F
100
AcDbEntity
  8
Rüttler
100
AcDbCircle
 10
-405.117905500206
 20
476.7507174558021
 30
0.0
 40
12.5
  0
CIRCLE
  5
FA1
330
1F
100
AcDbEntity
  8
Rüttler
100
AcDbCircle
 10
-405.117905500206
 20
476.7507174558021
 30
0.0
 40
9.0
  0
LINE
  5
FA2
330
1F
100
AcDbEntity
  8
Rüttler
100
AcDbLine
 10
-455.117905500206
 20
493.7507174558021
 30
0.0
 11
-355.117905500206
 21
493.7507174558021
 31
0.0
  0
LINE
  5
FA3
330
1F
100
AcDbEntity
  8
Rüttler
100
AcDbLine
 10
-455.117905500206
 20
494.7507174558021
 30
0.0
 11
-355.117905500206
 21
494.7507174558021
 31
0.0
  0
LINE
  5
FA4
330
1F
100
AcDbEntity
  8
Rüttler
100
AcDbLine
 10
-451.117905500206
 20
504.7507174558021
 30
0.0
 11
-359.117905500206
 21
504.7507174558021
 31
0.0
  0
LINE
  5
FA5
330
1F
100
AcDbEntity
  8
Rüttler
100
AcDbLine
 10
-420.7288327726935
 20
458.7507174558021
 30
0.0
 11
-389.5069782277185
 21
458.7507174558021
 31
0.0
  0
ARC
  5
FA6
330
1F
100
AcDbEntity
  8
Rüttler
100
AcDbCircle
 10
-405.117905500206
 20
379.7507174558021
 30
0.0
 40
78.0
100
AcDbArc
 50
76.51734212057913
 51
100.1581684790521
  0
LINE
  5
FA7
330
1F
100
AcDbEntity
  8
Rüttler
100
AcDbLine
 10
-422.0054008740028
 20
477.5007174422182
 30
0.0
 11
-414.2111722399424
 21
491.0007174558021
 31
0.0
  0
LINE
  5
FA8
330
1F
100
AcDbEntity
  8
Rüttler
100
AcDbLine
 10
-414.2111722399429
 20
462.5007174558021
 30
0.0
 11
-422.0054008740028
 21
476.0007174422181
 31
0.0
  0
ARC
  5
FA9
330
1F
100
AcDbEntity
  8
Rüttler
100
AcDbCircle
 10
-424.7003826980319
 20
459.3493107051444
 30
0.0
 40
4.0
100
AcDbArc
 50
277.2055356761256
 51
359.437719374984
  0
ARC
  5
FAA
330
1F
100
AcDbEntity
  8
Rüttler
100
AcDbCircle
 10
-412.9121341342663
 20
463.2507174558021
 30
0.0
 40
1.5
100
AcDbArc
 50
209.9999999999972
 51
270.0
  0
ARC
  5
FAB
330
1F
100
AcDbEntity
  8
Rüttler
100
AcDbCircle
 10
-420.7063627683258
 20
476.7507174422181
 30
0.0
 40
1.5
100
AcDbArc
 50
150.0000000000027
 51
209.9999999999972
  0
LINE
  5
FAC
330
1F
100
AcDbEntity
  8
Rüttler
100
AcDbLine
 10
-455.117905500206
 20
500.7507174558021
 30
0.0
 11
-455.117905500206
 21
493.7507174558022
 31
0.0
  0
ARC
  5
FAD
330
1F
100
AcDbEntity
  8
Rüttler
100
AcDbCircle
 10
-451.117905500206
 20
500.7507174558021
 30
0.0
 40
4.0
100
AcDbArc
 50
90.0
 51
180.0
  0
ARC
  5
FAE
330
1F
100
AcDbEntity
  8
Rüttler
100
AcDbCircle
 10
-412.9121341342658
 20
490.2507174558021
 30
0.0
 40
1.5
100
AcDbArc
 50
90.0
 51
150.0000000000027
  0
LINE
  5
FAF
330
1F
100
AcDbEntity
  8
Rüttler
100
AcDbLine
 10
-396.0246387604695
 20
491.0007174558021
 30
0.0
 11
-388.2304101264096
 21
477.500717455802
 31
0.0
  0
LINE
  5
FB0
330
1F
100
AcDbEntity
  8
Rüttler
100
AcDbLine
 10
-388.2304101264096
 20
476.000717455802
 30
0.0
 11
-396.0246387604695
 21
462.5007174558021
 31
0.0
  0
ARC
  5
FB1
330
1F
100
AcDbEntity
  8
Rüttler
100
AcDbCircle
 10
-405.117905500206
 20
379.7507174558021
 30
0.0
 40
78.0
100
AcDbArc
 50
78.42098640440624
 51
79.87211345414127
  0
ARC
  5
FB2
330
1F
100
AcDbEntity
  8
Rüttler
100
AcDbCircle
 10
-397.3236768661461
 20
463.2507174558021
 30
0.0
 40
1.5
100
AcDbArc
 50
270.0
 51
330.0000000000026
  0
ARC
  5
FB3
330
1F
100
AcDbEntity
  8
Rüttler
100
AcDbCircle
 10
-385.53542830238
 20
459.3493107051444
 30
0.0
 40
4.0
100
AcDbArc
 50
180.5622806250159
 51
262.7944643238744
  0
ARC
  5
FB4
330
1F
100
AcDbEntity
  8
Rüttler
100
AcDbCircle
 10
-389.5294482320862
 20
476.750717455802
 30
0.0
 40
1.5
100
AcDbArc
 50
330.0000000000026
 51
29.99999999999729
  0
ARC
  5
FB5
330
1F
100
AcDbEntity
  8
Rüttler
100
AcDbCircle
 10
-397.3236768661461
 20
490.2507174558021
 30
0.0
 40
1.5
100
AcDbArc
 50
29.99999999999729
 51
90.0
  0
LINE
  5
FB6
330
1F
100
AcDbEntity
  8
Rüttler
100
AcDbLine
 10
-355.117905500206
 20
500.7507174558021
 30
0.0
 11
-355.117905500206
 21
493.7507174558022
 31
0.0
  0
ARC
  5
FB7
330
1F
100
AcDbEntity
  8
Rüttler
100
AcDbCircle
 10
-359.117905500206
 20
500.7507174558021
 30
0.0
 40
4.0
100
AcDbArc
 50
0.0
 51
90.0
  0
ARC
  5
FB8
330
1F
100
AcDbEntity
  8
Rüttler
100
AcDbCircle
 10
-405.117905500206
 20
379.7507174558021
 30
0.0
 40
78.0
100
AcDbArc
 50
0.0
 51
25.50912124191317
  0
LINE
  5
FBA
330
1F
100
AcDbEntity
  8
0
  6
STRICHPUNKT
 48
3.0
370
    18
100
AcDbLine
 10
-305.117905500206
 20
372.6365161380197
 30
0.0
 11
-305.117905500206
 21
291.55812649995
 31
0.0
  0
LINE
  5
FBB
330
1F
100
AcDbEntity
  8
Rüttler
100
AcDbLine
 10
-285.1179055002059
 20
363.9507174558021
 30
0.0
 11
-285.1179055002059
 21
296.7507174558022
 31
0.0
  0
LINE
  5
FBC
330
1F
100
AcDbEntity
  8
Rüttler
100
AcDbLine
 10
-336.4535211802774
 20
320.3474674740395
 30
0.0
 11
-335.6903408795472
 21
342.2020918662795
 31
0.0
  0
LINE
  5
FBE
330
1F
100
AcDbEntity
  8
Rüttler
100
AcDbLine
 10
-335.1179055002059
 20
296.7507174558022
 30
0.0
 11
-285.1179055002059
 21
296.7507174558022
 31
0.0
  0
ARC
  5
FBF
330
1F
100
AcDbEntity
  8
Rüttler
100
AcDbCircle
 10
-346.4280426617226
 20
321.0608546173186
 30
0.0
 40
10.0
100
AcDbArc
 50
269.9091178420587
 51
0.0908821579380882
  0
LINE
  5
FC0
330
1F
100
AcDbEntity
  8
Rüttler
100
AcDbLine
 10
-335.1179055002059
 20
299.2507174558021
 30
0.0
 11
-335.1179055002059
 21
296.7507174558022
 31
0.0
  0
ARC
  5
FC1
330
1F
100
AcDbEntity
  8
Rüttler
100
AcDbCircle
 10
-337.617905500206
 20
299.2507174558021
 30
0.0
 40
2.5
100
AcDbArc
 50
0.0
 51
90.0
  0
LINE
  5
FC2
330
1F
100
AcDbEntity
  8
Rüttler
100
AcDbLine
 10
-343.4280426617226
 20
322.7929054248874
 30
0.0
 11
-343.4280426617226
 21
319.3288038097497
 31
0.0
  0
LINE
  5
FC3
330
1F
100
AcDbEntity
  8
Rüttler
100
AcDbLine
 10
-343.4280426617226
 20
319.3288038097497
 30
0.0
 11
-346.4280426617226
 21
317.5967530021809
 31
0.0
  0
LINE
  5
FC4
330
1F
100
AcDbEntity
  8
Rüttler
100
AcDbLine
 10
-346.4280426617226
 20
324.5249562324563
 30
0.0
 11
-343.4280426617226
 21
322.7929054248875
 31
0.0
  0
LINE
  5
FC5
330
1F
100
AcDbEntity
  8
Rüttler
100
AcDbLine
 10
-319.117905500206
 20
368.7507174558022
 30
0.0
 11
-291.117905500206
 21
368.7507174558022
 31
0.0
  0
LINE
  5
FC6
330
1F
100
AcDbEntity
  8
Rüttler
100
AcDbLine
 10
-319.1179055002058
 20
365.7507174558021
 30
0.0
 11
-289.317905500206
 21
365.7507174558021
 31
0.0
  0
LINE
  5
FC7
330
1F
100
AcDbEntity
  8
Rüttler
100
AcDbLine
 10
-327.1179055002055
 20
360.7507174558022
 30
0.0
 11
-330.1493036185049
 21
358.2168201795765
 31
0.0
  0
ARC
  5
FC8
330
1F
100
AcDbEntity
  8
Rüttler
100
AcDbCircle
 10
-325.6964326093564
 20
341.8530968992544
 30
0.0
 40
10.0
100
AcDbArc
 50
154.4908787580405
 51
177.9999999999997
  0
ARC
  5
FC9
330
1F
100
AcDbEntity
  8
Rüttler
100
AcDbCircle
 10
-405.117905500206
 20
379.7507174558021
 30
0.0
 40
78.0
100
AcDbArc
 50
334.4908787580868
 51
343.9738764850363
  0
ARC
  5
FCA
330
1F
100
AcDbEntity
  8
Rüttler
100
AcDbCircle
 10
-319.1179055002058
 20
373.7507174558021
 30
0.0
 40
8.0
100
AcDbArc
 50
180.0
 51
270.0
  0
ARC
  5
FCB
330
1F
100
AcDbEntity
  8
Rüttler
100
AcDbCircle
 10
-320.9179055002057
 20
367.5507174558022
 30
0.0
 40
1.8
100
AcDbArc
 50
288.6316780718788
 51
0.0
  0
LINE
  5
FCC
330
1F
100
AcDbEntity
  8
Rüttler
100
AcDbLine
 10
-327.117905500206
 20
379.7507174558021
 30
0.0
 11
-327.1179055002055
 21
360.7507174558022
 31
0.0
  0
LINE
  5
FCD
330
1F
100
AcDbEntity
  8
Rüttler
100
AcDbLine
 10
-319.117905500206
 20
368.7507174558022
 30
0.0
 11
-319.117905500206
 21
367.5507174558022
 31
0.0
  0
LINE
  5
FCE
330
1F
100
AcDbEntity
  8
Rüttler
100
AcDbLine
 10
-289.317905500206
 20
365.7507174558022
 30
0.0
 11
-286.9179055002057
 21
365.7507174558022
 31
0.0
  0
LINE
  5
FCF
330
1F
100
AcDbEntity
  8
Rüttler
100
AcDbLine
 10
-291.117905500206
 20
368.7507174558022
 30
0.0
 11
-291.117905500206
 21
367.5507174558023
 31
0.0
  0
ARC
  5
FD0
330
1F
100
AcDbEntity
  8
Rüttler
100
AcDbCircle
 10
-289.317905500206
 20
367.5507174558023
 30
0.0
 40
1.8
100
AcDbArc
 50
180.0
 51
270.0
  0
ARC
  5
FD1
330
1F
100
AcDbEntity
  8
Rüttler
100
AcDbCircle
 10
-286.9179055002057
 20
363.9507174558021
 30
0.0
 40
1.8
100
AcDbArc
 50
0.0
 51
90.0
  0
LINE
  5
FD2
330
1F
100
AcDbEntity
  8
Rüttler
100
AcDbLine
 10
-336.4535211802774
 20
439.1539674375646
 30
0.0
 11
-335.6903408795472
 21
417.2993430453242
 31
0.0
  0
ARC
  5
FD3
330
1F
100
AcDbEntity
  8
Rüttler
100
AcDbCircle
 10
-325.6964326093564
 20
417.6483380123494
 30
0.0
 40
10.0
100
AcDbArc
 50
182.0000000000001
 51
205.5091212419594
  0
LINE
  5
FD4
330
1F
100
AcDbEntity
  8
Rüttler
100
AcDbLine
 10
-342.9639410465845
 20
438.4405802942856
 30
0.0
 11
-344.6959918541535
 21
435.4405802942856
 31
0.0
  0
ARC
  5
FD5
330
1F
100
AcDbEntity
  8
Rüttler
100
AcDbCircle
 10
-346.4280426617222
 20
438.4405802942856
 30
0.0
 40
10.0
100
AcDbArc
 50
359.9091178420652
 51
90.09088215794135
  0
LINE
  5
FD6
330
1F
100
AcDbEntity
  8
Rüttler
100
AcDbLine
 10
-344.6959918541535
 20
441.4405802942856
 30
0.0
 11
-342.9639410465845
 21
438.4405802942856
 31
0.0
  0
LINE
  5
FD7
330
1F
100
AcDbEntity
  8
Rüttler
100
AcDbLine
 10
-841.3909479836444
 20
159.9449371918791
 30
0.0
 11
-845.5074957750458
 21
122.8960070692681
 31
0.0
  0
LINE
  5
FD8
330
1F
100
AcDbEntity
  8
Rüttler
100
AcDbLine
 10
-745.5074957750458
 20
122.8960070692681
 30
0.0
 11
-749.624043566447
 21
159.944937191879
 31
0.0
  0
LINE
  5
FD9
330
1F
100
AcDbEntity
  8
Rüttler
100
AcDbLine
 10
-702.5074957750454
 20
44.89600706926819
 30
0.0
 11
-702.5074957750454
 21
200.8960070692682
 31
0.0
  0
LINE
  5
FDA
330
1F
100
AcDbEntity
  8
Rüttler
100
AcDbLine
 10
-694.5074957750455
 20
44.89600706926819
 30
0.0
 11
-694.5074957750455
 21
200.8960070692682
 31
0.0
  0
LINE
  5
FDB
330
1F
100
AcDbEntity
  8
Rüttler
100
AcDbLine
 10
-894.5074957750458
 20
44.89600706926819
 30
0.0
 11
-894.5074957750458
 21
111.4460070692682
 31
0.0
  0
LINE
  5
FDC
330
1F
100
AcDbEntity
  8
Rüttler
100
AcDbLine
 10
-886.5074957750458
 20
44.89600706926819
 30
0.0
 11
-886.5074957750458
 21
111.1460070692682
 31
0.0
  0
LINE
  5
FDD
330
1F
100
AcDbEntity
  8
Rüttler
370
    15
100
AcDbLine
 10
-745.2338061498947
 20
195.8960070692687
 30
0.0
 11
-745.2338061498943
 21
49.89600706926762
 31
0.0
  0
LINE
  5
FDE
330
1F
100
AcDbEntity
  8
Rüttler
370
    15
100
AcDbLine
 10
-734.8232338893378
 20
200.896007069268
 30
0.0
 11
-734.8232338893378
 21
44.89600706926831
 31
0.0
  0
LINE
  5
FDF
330
1F
100
AcDbEntity
  8
Rüttler
100
AcDbLine
 10
-904.0074957750393
 20
131.6017239495949
 30
0.0
 11
-904.0074957750458
 21
200.8960070692682
 31
0.0
  0
LINE
  5
FE0
330
1F
100
AcDbEntity
  8
Rüttler
100
AcDbLine
 10
-902.5074957750458
 20
134.0460070692682
 30
0.0
 11
-902.5074957750458
 21
200.8960070692661
 31
0.0
  0
ARC
  5
FE1
330
1F
100
AcDbEntity
  8
Rüttler
100
AcDbCircle
 10
-750.5074957750458
 20
122.8960070692681
 30
0.0
 40
280.0
100
AcDbArc
 50
165.8485817395108
 51
194.1514182604891
  0
ARC
  5
FE2
330
1F
100
AcDbEntity
  8
Rüttler
100
AcDbCircle
 10
-838.5074957750456
 20
122.8960070692681
 30
0.0
 40
280.0
100
AcDbArc
 50
345.8485817395108
 51
14.15141826048912
  0
LINE
  5
FE3
330
1F
100
AcDbEntity
  8
Rüttler
100
AcDbLine
 10
-686.5074957750455
 20
44.89600706926819
 30
0.0
 11
-686.5074957750455
 21
200.8960070692682
 31
0.0
  0
LINE
  5
FE4
330
1F
100
AcDbEntity
  8
Rüttler
100
AcDbLine
 10
-685.0074957750596
 20
44.89600706926831
 30
0.0
 11
-685.0074957750455
 21
200.8960070692682
 31
0.0
  0
LINE
  5
FE5
330
1F
100
AcDbEntity
  8
Rüttler
100
AcDbLine
 10
-858.5074957750458
 20
140.0960070692682
 30
0.0
 11
-858.5074957750458
 21
105.6960070692681
 31
0.0
  0
LINE
  5
FE9
330
1F
100
AcDbEntity
  8
Rüttler
100
AcDbLine
 10
-832.5564258976569
 20
77.01255486066941
 30
0.0
 11
-795.5074957750458
 21
72.8960070692682
 31
0.0
  0
LINE
  5
FEA
330
1F
100
AcDbEntity
  8
Rüttler
100
AcDbLine
 10
-843.0568033204949
 20
49.89600706926887
 30
0.0
 11
-745.2338061498947
 21
49.89600706926762
 31
0.0
  0
LINE
  5
FEB
330
1F
100
AcDbEntity
  8
0
  6
STRICHPUNKT
 62
     7
 48
3.0
370
    18
100
AcDbLine
 10
-1037.084379028293
 20
122.8960070692681
 30
0.0
 11
-552.9306125217981
 21
122.8960070692681
 31
0.0
  0
ARC
  5
FEF
330
1F
100
AcDbEntity
  8
Rüttler
100
AcDbCircle
 10
-844.5074957750458
 20
22.89600706926819
 30
0.0
 40
20.0
100
AcDbArc
 50
180.0
 51
0.0
  0
CIRCLE
  5
FF0
330
1F
100
AcDbEntity
  8
Rüttler
100
AcDbCircle
 10
-844.5074957750458
 20
22.89600706926819
 30
0.0
 40
14.0
  0
LINE
  5
FF1
330
1F
100
AcDbEntity
  8
0
  6
STRICHPUNKT
370
    18
100
AcDbLine
 10
-844.5074957750458
 20
-2.154359790008129
 30
0.0
 11
-844.5074957750458
 21
52.84905954887609
 31
0.0
  0
CIRCLE
  5
FF2
330
1F
100
AcDbEntity
  8
Rüttler
100
AcDbCircle
 10
-844.5074957750458
 20
22.89600706926819
 30
0.0
 40
8.5
  0
LINE
  5
FF3
330
1F
100
AcDbEntity
  8
Rüttler
100
AcDbLine
 10
-956.6494319924947
 20
129.8960070692683
 30
0.0
 11
-904.5270821725694
 21
129.8960070692682
 31
0.0
  0
LINE
  5
FF4
330
1F
100
AcDbEntity
  8
Rüttler
100
AcDbLine
 10
-959.6032103099298
 20
115.8960070692681
 30
0.0
 11
-905.0665343332465
 21
115.8960070692681
 31
0.0
  0
LINE
  5
FF5
330
1F
100
AcDbEntity
  8
Rüttler
  6
VERDECKT
 62
     7
 48
0.3
370
    15
100
AcDbLine
 10
-913.6074957750444
 20
62.47409342321725
 30
0.0
 11
-909.6074957750445
 21
62.47409342321669
 31
0.0
  0
LINE
  5
FF6
330
1F
100
AcDbEntity
  8
Rüttler
100
AcDbLine
 10
-912.8074957750431
 20
70.70614423078598
 30
0.0
 11
-905.6074957750434
 21
70.70614423078494
 31
0.0
  0
LINE
  5
FF7
330
1F
100
AcDbEntity
  8
Rüttler
  6
VERDECKT
 62
     7
 48
0.3
370
    15
100
AcDbLine
 10
-913.6074957750437
 20
67.67024584592377
 30
0.0
 11
-909.6074957750438
 21
67.6702458459232
 31
0.0
  0
LINE
  5
FF8
330
1F
100
AcDbEntity
  8
Rüttler
  6
VERDECKT
 62
     7
 48
0.3
370
    15
100
AcDbLine
 10
-913.6074957750441
 20
65.93819503835493
 30
0.0
 11
-909.607495775044
 21
65.93819503835437
 31
0.0
  0
LINE
  5
FF9
330
1F
100
AcDbEntity
  8
Rüttler
100
AcDbLine
 10
-905.6074957750452
 20
57.70614423078495
 30
0.0
 11
-912.8074957750451
 21
57.70614423078598
 31
0.0
  0
LINE
  5
FFA
330
1F
100
AcDbEntity
  8
Rüttler
  6
VERDECKT
 62
     7
 48
0.3
370
    15
100
AcDbLine
 10
-909.6074957750448
 20
60.74204261564773
 30
0.0
 11
-913.6074957750448
 21
60.7420426156483
 31
0.0
  0
LINE
  5
FFB
330
1F
100
AcDbEntity
  8
Rüttler
100
AcDbLine
 10
-1014.253111852356
 20
48.3960070692682
 30
0.0
 11
-905.0074957750458
 21
48.3960070692682
 31
0.0
  0
LINE
  5
FFC
330
1F
100
AcDbEntity
  8
0
  6
STRICHPUNKT
 48
2.0
370
    18
100
AcDbLine
 10
-916.0074957750444
 20
64.20614423078644
 30
0.0
 11
-856.5521228562106
 21
64.20614423078132
 31
0.0
  0
ARC
  5
FFD
330
1F
100
AcDbEntity
  8
Rüttler
100
AcDbCircle
 10
-1014.253111852356
 20
56.39600706926819
 30
0.0
 40
8.0
100
AcDbArc
 50
194.1514182604923
 51
270.0
  0
LINE
  5
FFE
330
1F
100
AcDbEntity
  8
Rüttler
100
AcDbLine
 10
-913.607495775045
 20
58.50614423078605
 30
0.0
 11
-913.6074957750436
 21
69.90614423078614
 31
0.0
  0
ARC
  5
FFF
330
1F
100
AcDbEntity
  8
Rüttler
100
AcDbCircle
 10
-912.8074957750447
 20
58.50614423078593
 30
0.0
 40
0.8000000000000113
100
AcDbArc
 50
179.9999999999934
 51
269.999999999987
  0
ARC
  5
1000
330
1F
100
AcDbEntity
  8
Rüttler
100
AcDbCircle
 10
-912.8074957750435
 20
69.90614423078603
 30
0.0
 40
0.8000000000000113
100
AcDbArc
 50
89.99999999998697
 51
179.9999999999934
  0
LINE
  5
1001
330
1F
100
AcDbEntity
  8
Rüttler
100
AcDbLine
 10
-957.8369018933054
 20
125.2402202691845
 30
0.0
 11
-957.5515659531966
 21
124.0993244335417
 31
0.0
  0
LINE
  5
1002
330
1F
100
AcDbEntity
  8
Rüttler
100
AcDbLine
 10
-959.263588923359
 20
117.2539507521463
 30
0.0
 11
-959.6032103099298
 21
115.8960070692681
 31
0.0
  0
LINE
  5
1003
330
1F
100
AcDbEntity
  8
Rüttler
100
AcDbLine
 10
-957.5515659531966
 20
124.0993244335417
 30
0.0
 11
-957.5515659531966
 21
120.6766369266134
 31
0.0
  0
LINE
  5
1004
330
1F
100
AcDbEntity
  8
Rüttler
100
AcDbLine
 10
-957.5515659531966
 20
120.6766369266134
 30
0.0
 11
-958.1222396657915
 21
119.5357410909708
 31
0.0
  0
LINE
  5
1005
330
1F
100
AcDbEntity
  8
Rüttler
100
AcDbLine
 10
-958.1222396657915
 20
119.5357410909708
 30
0.0
 11
-958.97825298325
 21
118.394845255328
 31
0.0
  0
LINE
  5
1006
330
1F
100
AcDbEntity
  8
Rüttler
100
AcDbLine
 10
-958.97825298325
 20
118.394845255328
 30
0.0
 11
-959.263588923359
 21
117.2539507521463
 31
0.0
  0
LINE
  5
1007
330
1F
100
AcDbEntity
  8
Rüttler
100
AcDbLine
 10
-957.8369018933054
 20
127.5220119404699
 30
0.0
 11
-958.1222396657915
 21
126.3811161048271
 31
0.0
  0
LINE
  5
1008
330
1F
100
AcDbEntity
  8
Rüttler
100
AcDbLine
 10
-958.1222396657915
 20
126.3811161048271
 30
0.0
 11
-957.8369018933054
 21
125.2402202691845
 31
0.0
  0
LINE
  5
1009
330
1F
100
AcDbEntity
  8
Rüttler
100
AcDbLine
 10
-956.6494319924947
 20
129.8960070692683
 30
0.0
 11
-956.6955526357382
 21
129.8038022792942
 31
0.0
  0
LINE
  5
100A
330
1F
100
AcDbEntity
  8
Rüttler
100
AcDbLine
 10
-956.6955526357382
 20
129.8038022792942
 30
0.0
 11
-957.2662281807104
 21
128.6629077761126
 31
0.0
  0
LINE
  5
100B
330
1F
100
AcDbEntity
  8
Rüttler
100
AcDbLine
 10
-957.2662281807104
 20
128.6629077761126
 30
0.0
 11
-957.8369018933054
 21
127.5220119404699
 31
0.0
  0
ARC
  5
100C
330
1F
100
AcDbEntity
  8
Rüttler
100
AcDbCircle
 10
-819.2661505745475
 20
66.13601283257174
 30
0.0
 40
47.28074755302426
100
AcDbArc
 50
153.3056052622227
 51
206.6943947377772
  0
LINE
  5
100D
330
1F
100
AcDbEntity
  8
Rüttler
100
AcDbLine
 10
-861.5074957750458
 20
87.37601859587483
 30
0.0
 11
-861.5074957750458
 21
44.89600706926819
 31
0.0
  0
LINE
  5
100E
330
1F
100
AcDbEntity
  8
Rüttler
370
    15
100
AcDbLine
 10
-843.0568033202536
 20
100.8397749761338
 30
0.0
 11
-843.056803320254
 21
49.89600706926899
 31
0.0
  0
LINE
  5
100F
330
1F
100
AcDbEntity
  8
Rüttler
370
    15
100
AcDbLine
 10
-853.5131148465973
 20
105.6960070692681
 30
0.0
 11
-853.5131148465973
 21
44.89600706927194
 31
0.0
  0
ARC
  5
1010
330
1F
100
AcDbEntity
  8
Rüttler
100
AcDbCircle
 10
-831.4521106369083
 20
86.95139220740555
 30
0.0
 40
10.0
100
AcDbArc
 50
186.3401917459088
 51
263.6598082540948
  0
LINE
  5
1011
330
1F
100
AcDbEntity
  8
Rüttler
100
AcDbLine
 10
-904.0074957750315
 20
44.89600706926831
 30
0.0
 11
-904.0074957750377
 21
111.8022570692679
 31
0.0
  0
LINE
  5
1012
330
1F
100
AcDbEntity
  8
Rüttler
100
AcDbLine
 10
-902.5074957750458
 20
44.89600706926819
 30
0.0
 11
-902.5074957750458
 21
111.7460070692682
 31
0.0
  0
LINE
  5
1013
330
1F
100
AcDbEntity
  8
Rüttler
100
AcDbLine
 10
-907.0074957750422
 20
85.34738147973233
 30
0.0
 11
-907.0074957750435
 21
70.70614423078507
 31
0.0
  0
LINE
  5
1014
330
1F
100
AcDbEntity
  8
0
  6
STRICHPUNKT
370
    18
100
AcDbLine
 10
-869.5578626343221
 20
22.89600706926819
 30
0.0
 11
-819.4571289157693
 21
22.89600706926819
 31
0.0
  0
LINE
  5
1015
330
1F
100
AcDbEntity
  8
Rüttler
100
AcDbLine
 10
-853.5131148465973
 20
44.89600706927194
 30
0.0
 11
-902.5074957750458
 21
44.89600706926819
 31
0.0
  0
LINE
  5
1016
330
1F
100
AcDbEntity
  8
Rüttler
100
AcDbLine
 10
-904.0074957750315
 20
44.89600706926831
 30
0.0
 11
-902.5074957750458
 21
44.89600706926819
 31
0.0
  0
LINE
  5
1017
330
1F
100
AcDbEntity
  8
Rüttler
100
AcDbLine
 10
-864.5074957750458
 20
22.89600706926819
 30
0.0
 11
-864.5074957750458
 21
44.89600706927115
 31
0.0
  0
LINE
  5
1018
330
1F
100
AcDbEntity
  8
Rüttler
100
AcDbLine
 10
-904.0074957750433
 20
72.70614423078484
 30
0.0
 11
-904.0074957750455
 21
55.70614423078473
 31
0.0
  0
ARC
  5
1019
330
1F
100
AcDbEntity
  8
Rüttler
  6
VERDECKT
 62
     7
 48
0.3
370
    15
100
AcDbCircle
 10
-911.1074957750448
 20
61.60806801943238
 30
0.0
 40
1.732050807568906
100
AcDbArc
 50
329.9999999999933
 51
29.9999999999889
  0
LINE
  5
101A
330
1F
100
AcDbEntity
  8
Rüttler
100
AcDbLine
 10
-905.6074957750453
 20
55.70614423078495
 30
0.0
 11
-905.6074957750432
 21
72.70614423078494
 31
0.0
  0
LINE
  5
101B
330
1F
100
AcDbEntity
  8
Rüttler
100
AcDbLine
 10
-905.6074957750434
 20
70.70614423078494
 30
0.0
 11
-905.6074957750452
 21
57.70614423078495
 31
0.0
  0
LINE
  5
101C
330
1F
100
AcDbEntity
  8
Rüttler
  6
VERDECKT
 62
     7
 48
0.3
370
    15
100
AcDbLine
 10
-909.6074957750448
 20
60.74204261564773
 30
0.0
 11
-907.6074957750442
 21
64.2061442307853
 31
0.0
  0
LINE
  5
101D
330
1F
100
AcDbEntity
  8
Rüttler
100
AcDbLine
 10
-907.0074957750446
 20
57.70614423078519
 30
0.0
 11
-907.0074957750454
 21
48.3960070692682
 31
0.0
  0
ARC
  5
101E
330
1F
100
AcDbEntity
  8
Rüttler
100
AcDbCircle
 10
-905.0074957750458
 20
47.39600706926819
 30
0.0
 40
1.0
100
AcDbArc
 50
0.0
 51
90.0
  0
LINE
  5
101F
330
1F
100
AcDbEntity
  8
Rüttler
100
AcDbLine
 10
-904.0074957750455
 20
55.70614423078473
 30
0.0
 11
-905.6074957750453
 21
55.70614423078495
 31
0.0
  0
ARC
  5
1020
330
1F
100
AcDbEntity
  8
Rüttler
  6
VERDECKT
 62
     7
 48
0.3
370
    15
100
AcDbCircle
 10
-912.6074957750443
 20
64.20614423078598
 30
0.0
 40
3.464101615137725
100
AcDbArc
 50
329.9999999999933
 51
29.9999999999889
  0
ARC
  5
1021
330
1F
100
AcDbEntity
  8
Rüttler
  6
VERDECKT
 62
     7
 48
0.3
370
    15
100
AcDbCircle
 10
-911.1074957750441
 20
66.80422044213913
 30
0.0
 40
1.732050807568867
100
AcDbArc
 50
329.9999999999933
 51
29.9999999999889
  0
LINE
  5
1022
330
1F
100
AcDbEntity
  8
Rüttler
  6
VERDECKT
 62
     7
 48
0.3
370
    15
100
AcDbLine
 10
-909.6074957750438
 20
67.6702458459232
 30
0.0
 11
-907.6074957750442
 21
64.2061442307853
 31
0.0
  0
LINE
  5
1023
330
1F
100
AcDbEntity
  8
Rüttler
100
AcDbLine
 10
-904.0074957750433
 20
72.70614423078484
 30
0.0
 11
-905.6074957750432
 21
72.70614423078494
 31
0.0
  0
ARC
  5
1024
330
1F
100
AcDbEntity
  8
Rüttler
100
AcDbCircle
 10
-841.7315187556409
 20
33.69104434199812
 30
0.0
 40
16.25906504599921
100
AcDbArc
 50
94.67539475916277
 51
136.43700197279
  0
LINE
  5
1025
330
1F
100
AcDbEntity
  8
Rüttler
100
AcDbLine
 10
-824.5074957750458
 20
22.89600706926819
 30
0.0
 11
-824.5074957750458
 21
49.89600706926864
 31
0.0
  0
LINE
  5
1026
330
1F
100
AcDbEntity
  8
Rüttler
100
AcDbLine
 10
-843.5963846639348
 20
105.6960070692681
 30
0.0
 11
-858.5074957750458
 21
105.6960070692681
 31
0.0
  0
ARC
  5
1027
330
1F
100
AcDbEntity
  8
Rüttler
100
AcDbCircle
 10
-864.5074957750458
 20
109.8960070692681
 30
0.0
 40
2.0
100
AcDbArc
 50
180.0
 51
270.0
  0
ARC
  5
1028
330
1F
100
AcDbEntity
  8
Rüttler
100
AcDbCircle
 10
-860.5074957750458
 20
109.8960070692681
 30
0.0
 40
2.0
100
AcDbArc
 50
270.0
 51
0.0
  0
LINE
  5
1029
330
1F
100
AcDbEntity
  8
Rüttler
370
    15
100
AcDbLine
 10
-886.5074957750458
 20
87.37601859587471
 30
0.0
 11
-861.5074957750458
 21
87.37601859587483
 31
0.0
  0
ARC
  5
102A
330
1F
100
AcDbEntity
  8
Rüttler
100
AcDbCircle
 10
-908.5625838469159
 20
81.06596484138402
 30
0.0
 40
4.555088071873115
100
AcDbArc
 50
0.0
 51
70.03806160757902
  0
LINE
  5
102B
330
1F
100
AcDbEntity
  8
Rüttler
100
AcDbLine
 10
-864.5074957750458
 20
107.8960070692682
 30
0.0
 11
-860.5074957750458
 21
107.8960070692682
 31
0.0
  0
LINE
  5
102C
330
1F
100
AcDbEntity
  8
Rüttler
100
AcDbLine
 10
-866.5074957750458
 20
135.3960070692681
 30
0.0
 11
-903.3374588111669
 21
134.0148834554137
 31
0.0
  0
LINE
  5
102D
330
1F
100
AcDbEntity
  8
Rüttler
100
AcDbLine
 10
-866.5074957750458
 20
110.3960070692681
 30
0.0
 11
-904.3411230307858
 21
111.8147680913584
 31
0.0
  0
LINE
  5
102E
330
1F
100
AcDbEntity
  8
Rüttler
100
AcDbLine
 10
-903.9081325237621
 20
125.2402202691845
 30
0.0
 11
-903.9081325237621
 21
124.0993244335417
 31
0.0
  0
LINE
  5
102F
330
1F
100
AcDbEntity
  8
Rüttler
100
AcDbLine
 10
-903.9081325237621
 20
124.0993244335417
 30
0.0
 11
-904.193470296248
 21
122.958428597899
 31
0.0
  0
LINE
  5
1030
330
1F
100
AcDbEntity
  8
Rüttler
100
AcDbLine
 10
-904.193470296248
 20
122.958428597899
 30
0.0
 11
-904.193470296248
 21
121.8175327622562
 31
0.0
  0
LINE
  5
1031
330
1F
100
AcDbEntity
  8
Rüttler
100
AcDbLine
 10
-904.4788080687341
 20
114.6869351219503
 30
0.0
 11
-904.193470296248
 21
113.5460392863075
 31
0.0
  0
LINE
  5
1032
330
1F
100
AcDbEntity
  8
Rüttler
100
AcDbLine
 10
-904.193470296248
 20
113.5460392863075
 30
0.0
 11
-904.193470296248
 21
112.4051434506648
 31
0.0
  0
LINE
  5
1033
330
1F
100
AcDbEntity
  8
Rüttler
100
AcDbLine
 10
-904.193470296248
 20
112.4051434506648
 30
0.0
 11
-904.3411230307858
 21
111.8147680913584
 31
0.0
  0
LINE
  5
1034
330
1F
100
AcDbEntity
  8
Rüttler
100
AcDbLine
 10
-904.7641458412204
 20
120.6766369266134
 30
0.0
 11
-905.0494836137065
 21
119.5357410909708
 31
0.0
  0
LINE
  5
1035
330
1F
100
AcDbEntity
  8
Rüttler
100
AcDbLine
 10
-905.0494836137065
 20
119.5357410909708
 30
0.0
 11
-905.3348195538156
 21
118.1096226288784
 31
0.0
  0
LINE
  5
1036
330
1F
100
AcDbEntity
  8
Rüttler
100
AcDbLine
 10
-905.3348195538156
 20
118.1096226288784
 30
0.0
 11
-905.3348195538156
 21
116.9687267932357
 31
0.0
  0
LINE
  5
1037
330
1F
100
AcDbEntity
  8
Rüttler
100
AcDbLine
 10
-905.3348195538156
 20
116.9687267932357
 30
0.0
 11
-905.0494836137065
 21
115.8278309575929
 31
0.0
  0
LINE
  5
1038
330
1F
100
AcDbEntity
  8
Rüttler
100
AcDbLine
 10
-904.193470296248
 20
121.8175327622562
 30
0.0
 11
-904.7641458412204
 21
120.6766369266134
 31
0.0
  0
LINE
  5
1039
330
1F
100
AcDbEntity
  8
Rüttler
100
AcDbLine
 10
-905.0494836137065
 20
115.8278309575929
 30
0.0
 11
-904.4788080687341
 21
114.6869351219503
 31
0.0
  0
LINE
  5
103A
330
1F
100
AcDbEntity
  8
Rüttler
100
AcDbLine
 10
-904.4788080687341
 20
127.8072358993805
 30
0.0
 11
-904.193470296248
 21
126.3811161048271
 31
0.0
  0
LINE
  5
103B
330
1F
100
AcDbEntity
  8
Rüttler
100
AcDbLine
 10
-904.193470296248
 20
126.3811161048271
 30
0.0
 11
-903.9081325237621
 21
125.2402202691845
 31
0.0
  0
LINE
  5
103C
330
1F
100
AcDbEntity
  8
Rüttler
100
AcDbLine
 10
-903.3374588111669
 20
133.5117137451331
 30
0.0
 11
-903.622796583653
 21
132.3708179094904
 31
0.0
  0
LINE
  5
103D
330
1F
100
AcDbEntity
  8
Rüttler
100
AcDbLine
 10
-903.622796583653
 20
132.3708179094904
 30
0.0
 11
-904.193470296248
 21
131.2299220738476
 31
0.0
  0
LINE
  5
103E
330
1F
100
AcDbEntity
  8
Rüttler
100
AcDbLine
 10
-904.193470296248
 20
131.2299220738476
 30
0.0
 11
-904.4788080687341
 21
130.089026238205
 31
0.0
  0
LINE
  5
103F
330
1F
100
AcDbEntity
  8
Rüttler
100
AcDbLine
 10
-903.3374588111669
 20
134.0148834554137
 30
0.0
 11
-903.3374588111669
 21
133.5117137451331
 31
0.0
  0
LINE
  5
1040
330
1F
100
AcDbEntity
  8
Rüttler
100
AcDbLine
 10
-904.4788080687341
 20
130.089026238205
 30
0.0
 11
-904.7641458412204
 21
128.9481317350233
 31
0.0
  0
LINE
  5
1041
330
1F
100
AcDbEntity
  8
Rüttler
100
AcDbLine
 10
-904.7641458412204
 20
128.9481317350233
 30
0.0
 11
-904.4788080687341
 21
127.8072358993805
 31
0.0
  0
LINE
  5
1042
330
1F
100
AcDbEntity
  8
Rüttler
100
AcDbLine
 10
-866.5074957750458
 20
135.8960070692681
 30
0.0
 11
-866.5074957750458
 21
109.8960070692681
 31
0.0
  0
LINE
  5
1043
330
1F
100
AcDbEntity
  8
Rüttler
100
AcDbLine
 10
-866.5074957750458
 20
114.1960070692681
 30
0.0
 11
-858.5074957750458
 21
114.1960070692681
 31
0.0
  0
LINE
  5
1044
330
1F
100
AcDbEntity
  8
Rüttler
100
AcDbLine
 10
-866.5074957750458
 20
131.5960070692682
 30
0.0
 11
-858.5074957750458
 21
131.5960070692682
 31
0.0
  0
LINE
  5
1045
330
1F
100
AcDbEntity
  8
Rüttler
100
AcDbLine
 10
-864.5074957750458
 20
137.8960070692681
 30
0.0
 11
-860.5074957750455
 21
137.8960070692683
 31
0.0
  0
ARC
  5
1046
330
1F
100
AcDbEntity
  8
Rüttler
100
AcDbCircle
 10
-864.5074957750458
 20
135.8960070692681
 30
0.0
 40
2.0
100
AcDbArc
 50
90.0
 51
180.0
  0
ARC
  5
1047
330
1F
100
AcDbEntity
  8
Rüttler
100
AcDbCircle
 10
-860.5074957750455
 20
135.8960070692683
 30
0.0
 40
2.0
100
AcDbArc
 50
0.0
 51
90.0
  0
LINE
  5
1048
330
1F
100
AcDbEntity
  8
Rüttler
100
AcDbLine
 10
-845.5074957750458
 20
122.8960070692681
 30
0.0
 11
-841.3909479836444
 21
85.84707694665713
 31
0.0
  0
CIRCLE
  5
1049
330
1F
100
AcDbEntity
  8
Rüttler
100
AcDbCircle
 10
-833.0074957750458
 20
85.3960070692682
 30
0.0
 40
3.25
  0
CIRCLE
  5
104A
330
1F
100
AcDbEntity
  8
Rüttler
100
AcDbCircle
 10
-833.0074957750458
 20
85.3960070692682
 30
0.0
 40
5.5
  0
CIRCLE
  5
104B
330
1F
100
AcDbEntity
  8
Rüttler
100
AcDbCircle
 10
-744.5074957750455
 20
22.89600706926819
 30
0.0
 40
8.5
  0
ARC
  5
104C
330
1F
100
AcDbEntity
  8
Rüttler
100
AcDbCircle
 10
-744.5074957750455
 20
22.89600706926819
 30
0.0
 40
20.0
100
AcDbArc
 50
180.0
 51
0.0
  0
CIRCLE
  5
104D
330
1F
100
AcDbEntity
  8
Rüttler
100
AcDbCircle
 10
-744.5074957750455
 20
22.89600706926819
 30
0.0
 40
14.0
  0
LINE
  5
104E
330
1F
100
AcDbEntity
  8
0
  6
STRICHPUNKT
370
    18
100
AcDbLine
 10
-744.5074957750455
 20
-2.154359790008129
 30
0.0
 11
-744.5074957750455
 21
52.84905954887609
 31
0.0
  0
LINE
  5
104F
330
1F
100
AcDbEntity
  8
Rüttler
100
AcDbLine
 10
-685.0074957750596
 20
44.89600706926831
 30
0.0
 11
-686.5074957750455
 21
44.89600706926819
 31
0.0
  0
LINE
  5
1050
330
1F
100
AcDbEntity
  8
0
  6
STRICHPUNKT
 48
2.0
370
    18
100
AcDbLine
 10
-673.0074957750471
 20
64.20614423078644
 30
0.0
 11
-730.8509692521488
 21
64.20614423078132
 31
0.0
  0
LINE
  5
1051
330
1F
100
AcDbEntity
  8
Rüttler
100
AcDbLine
 10
-727.5074957750458
 20
87.37601859587517
 30
0.0
 11
-727.5074957750453
 21
44.89600706926853
 31
0.0
  0
ARC
  5
1052
330
1F
100
AcDbEntity
  8
Rüttler
100
AcDbCircle
 10
-769.7488409755435
 20
66.13601283257185
 30
0.0
 40
47.28074755302426
100
AcDbArc
 50
333.3056052622227
 51
26.69439473777722
  0
ARC
  5
1053
330
1F
100
AcDbEntity
  8
Rüttler
100
AcDbCircle
 10
-759.5628809131833
 20
86.95139220740566
 30
0.0
 40
10.0
100
AcDbArc
 50
276.3401917459049
 51
353.6598082540911
  0
ARC
  5
1054
330
1F
100
AcDbEntity
  8
Rüttler
100
AcDbCircle
 10
-746.5569956874169
 20
33.8029735311012
 30
0.0
 40
16.14733906910849
100
AcDbArc
 50
43.39217954703759
 51
85.29964163659187
  0
LINE
  5
1055
330
1F
100
AcDbEntity
  8
0
  6
STRICHPUNKT
370
    18
100
AcDbLine
 10
-769.5578626343217
 20
22.89600706926819
 30
0.0
 11
-719.4571289157693
 21
22.89600706926819
 31
0.0
  0
LINE
  5
1056
330
1F
100
AcDbEntity
  8
Rüttler
100
AcDbLine
 10
-764.5074957750455
 20
22.89600706926819
 30
0.0
 11
-764.5074957750455
 21
49.89600706926797
 31
0.0
  0
LINE
  5
1057
330
1F
100
AcDbEntity
  8
Rüttler
100
AcDbLine
 10
-795.5074957750458
 20
72.8960070692682
 30
0.0
 11
-758.4585656524348
 21
77.01255486066952
 31
0.0
  0
LINE
  5
1058
330
1F
100
AcDbEntity
  8
Rüttler
100
AcDbLine
 10
-715.5074957750455
 20
44.89600706926819
 30
0.0
 11
-686.5074957750455
 21
44.89600706926819
 31
0.0
  0
LINE
  5
1059
330
1F
100
AcDbEntity
  8
Rüttler
100
AcDbLine
 10
-724.5074957750455
 20
22.89600706926819
 30
0.0
 11
-724.5074957750455
 21
44.89600706926819
 31
0.0
  0
LINE
  5
105A
330
1F
100
AcDbEntity
  8
Rüttler
100
AcDbLine
 10
-734.823233889346
 20
44.89600706926831
 30
0.0
 11
-715.5074957750455
 21
44.89600706926796
 31
0.0
  0
LINE
  5
105B
330
1F
100
AcDbEntity
  8
Rüttler
100
AcDbLine
 10
-749.6240435664471
 20
85.84707694665722
 30
0.0
 11
-745.5074957750458
 21
122.8960070692681
 31
0.0
  0
CIRCLE
  5
105C
330
1F
100
AcDbEntity
  8
Rüttler
100
AcDbCircle
 10
-758.0074957750458
 20
85.3960070692682
 30
0.0
 40
5.5
  0
CIRCLE
  5
105D
330
1F
100
AcDbEntity
  8
Rüttler
100
AcDbCircle
 10
-758.0074957750458
 20
85.3960070692682
 30
0.0
 40
3.25
  0
LINE
  5
105E
330
1F
100
AcDbEntity
  8
Rüttler
370
    15
100
AcDbLine
 10
-702.5074957750458
 20
87.37601859587517
 30
0.0
 11
-727.5074957750458
 21
87.37601859587517
 31
0.0
  0
LINE
  5
105F
330
1F
100
AcDbEntity
  8
Rüttler
100
AcDbLine
 10
-682.0074957750492
 20
85.34738147973233
 30
0.0
 11
-682.007495775048
 21
70.70614423078507
 31
0.0
  0
LINE
  5
1060
330
1F
100
AcDbEntity
  8
Rüttler
100
AcDbLine
 10
-574.7618796977351
 20
48.3960070692682
 30
0.0
 11
-684.0074957750455
 21
48.3960070692682
 31
0.0
  0
ARC
  5
1061
330
1F
100
AcDbEntity
  8
Rüttler
  6
VERDECKT
 62
     7
 48
0.3
370
    15
100
AcDbCircle
 10
-677.9074957750468
 20
61.60806801943238
 30
0.0
 40
1.732050807568906
100
AcDbArc
 50
150.000000000011
 51
210.0000000000067
  0
LINE
  5
1062
330
1F
100
AcDbEntity
  8
Rüttler
  6
VERDECKT
 62
     7
 48
0.3
370
    15
100
AcDbLine
 10
-679.4074957750468
 20
60.74204261564773
 30
0.0
 11
-681.4074957750472
 21
64.2061442307853
 31
0.0
  0
LINE
  5
1063
330
1F
100
AcDbEntity
  8
Rüttler
100
AcDbLine
 10
-683.407495775048
 20
70.70614423078494
 30
0.0
 11
-683.4074957750463
 21
57.70614423078495
 31
0.0
  0
LINE
  5
1064
330
1F
100
AcDbEntity
  8
Rüttler
100
AcDbLine
 10
-675.4074957750465
 20
58.50614423078605
 30
0.0
 11
-675.4074957750479
 21
69.90614423078614
 31
0.0
  0
LINE
  5
1065
330
1F
100
AcDbEntity
  8
Rüttler
100
AcDbLine
 10
-685.0074957750483
 20
72.70614423078484
 30
0.0
 11
-685.0074957750459
 21
55.70614423078473
 31
0.0
  0
LINE
  5
1066
330
1F
100
AcDbEntity
  8
Rüttler
100
AcDbLine
 10
-683.407495775046
 20
55.70614423078495
 30
0.0
 11
-683.4074957750483
 21
72.70614423078494
 31
0.0
  0
LINE
  5
1067
330
1F
100
AcDbEntity
  8
Rüttler
  6
VERDECKT
 62
     7
 48
0.3
370
    15
100
AcDbLine
 10
-679.4074957750468
 20
60.74204261564773
 30
0.0
 11
-675.4074957750468
 21
60.7420426156483
 31
0.0
  0
LINE
  5
1068
330
1F
100
AcDbEntity
  8
Rüttler
100
AcDbLine
 10
-683.4074957750463
 20
57.70614423078495
 30
0.0
 11
-676.2074957750464
 21
57.70614423078598
 31
0.0
  0
LINE
  5
1069
330
1F
100
AcDbEntity
  8
Rüttler
100
AcDbLine
 10
-682.0074957750469
 20
57.70614423078519
 30
0.0
 11
-682.007495775046
 21
48.3960070692682
 31
0.0
  0
ARC
  5
106A
330
1F
100
AcDbEntity
  8
Rüttler
100
AcDbCircle
 10
-684.0074957750455
 20
47.39600706926819
 30
0.0
 40
1.0
100
AcDbArc
 50
90.0
 51
180.0
  0
LINE
  5
106B
330
1F
100
AcDbEntity
  8
Rüttler
100
AcDbLine
 10
-685.0074957750459
 20
55.70614423078473
 30
0.0
 11
-683.407495775046
 21
55.70614423078495
 31
0.0
  0
ARC
  5
106C
330
1F
100
AcDbEntity
  8
Rüttler
100
AcDbCircle
 10
-676.2074957750467
 20
58.50614423078593
 30
0.0
 40
0.8000000000000113
100
AcDbArc
 50
270.000000000013
 51
0.0000000000065138
  0
LINE
  5
106D
330
1F
100
AcDbEntity
  8
Rüttler
  6
VERDECKT
 62
     7
 48
0.3
370
    15
100
AcDbLine
 10
-675.4074957750474
 20
65.93819503835493
 30
0.0
 11
-679.4074957750474
 21
65.93819503835437
 31
0.0
  0
LINE
  5
106E
330
1F
100
AcDbEntity
  8
Rüttler
  6
VERDECKT
 62
     7
 48
0.3
370
    15
100
AcDbLine
 10
-675.4074957750476
 20
67.67024584592377
 30
0.0
 11
-679.4074957750476
 21
67.6702458459232
 31
0.0
  0
LINE
  5
106F
330
1F
100
AcDbEntity
  8
Rüttler
100
AcDbLine
 10
-676.2074957750483
 20
70.70614423078598
 30
0.0
 11
-683.407495775048
 21
70.70614423078494
 31
0.0
  0
LINE
  5
1070
330
1F
100
AcDbEntity
  8
Rüttler
  6
VERDECKT
 62
     7
 48
0.3
370
    15
100
AcDbLine
 10
-675.407495775047
 20
62.47409342321725
 30
0.0
 11
-679.407495775047
 21
62.47409342321669
 31
0.0
  0
LINE
  5
1071
330
1F
100
AcDbEntity
  8
Rüttler
  6
VERDECKT
 62
     7
 48
0.3
370
    15
100
AcDbLine
 10
-679.4074957750476
 20
67.6702458459232
 30
0.0
 11
-681.4074957750472
 21
64.2061442307853
 31
0.0
  0
ARC
  5
1072
330
1F
100
AcDbEntity
  8
Rüttler
  6
VERDECKT
 62
     7
 48
0.3
370
    15
100
AcDbCircle
 10
-677.9074957750474
 20
66.80422044213913
 30
0.0
 40
1.732050807568867
100
AcDbArc
 50
150.000000000011
 51
210.0000000000067
  0
LINE
  5
1073
330
1F
100
AcDbEntity
  8
Rüttler
100
AcDbLine
 10
-685.0074957750483
 20
72.70614423078484
 30
0.0
 11
-683.4074957750483
 21
72.70614423078494
 31
0.0
  0
ARC
  5
1074
330
1F
100
AcDbEntity
  8
Rüttler
  6
VERDECKT
 62
     7
 48
0.3
370
    15
100
AcDbCircle
 10
-676.4074957750472
 20
64.20614423078598
 30
0.0
 40
3.464101615137725
100
AcDbArc
 50
150.000000000011
 51
210.0000000000067
  0
ARC
  5
1075
330
1F
100
AcDbEntity
  8
Rüttler
100
AcDbCircle
 10
-676.207495775048
 20
69.90614423078603
 30
0.0
 40
0.8000000000000113
100
AcDbArc
 50
0.0000000000065138
 51
90.00000000001303
  0
ARC
  5
1076
330
1F
100
AcDbEntity
  8
Rüttler
100
AcDbCircle
 10
-574.7618796977351
 20
56.39600706926819
 30
0.0
 40
8.0
100
AcDbArc
 50
270.0
 51
345.8485817395077
  0
ARC
  5
1077
330
1F
100
AcDbEntity
  8
Rüttler
100
AcDbCircle
 10
-680.4524077031755
 20
81.06596484138402
 30
0.0
 40
4.555088071873115
100
AcDbArc
 50
109.9619383924209
 51
180.0
  0
LINE
  5
1078
330
1F
100
AcDbEntity
  8
Rüttler
100
AcDbLine
 10
-832.5564258976569
 20
168.7794592778668
 30
0.0
 11
-795.5074957750458
 21
172.8960070692681
 31
0.0
  0
LINE
  5
1079
330
1F
100
AcDbEntity
  8
Rüttler
100
AcDbLine
 10
-843.0568033204949
 20
195.8960070692675
 30
0.0
 11
-745.2338061498947
 21
195.8960070692687
 31
0.0
  0
LINE
  5
107A
330
1F
100
AcDbEntity
  8
Rüttler
100
AcDbLine
 10
-905.6074957750452
 20
188.0858699077514
 30
0.0
 11
-912.8074957750451
 21
188.0858699077504
 31
0.0
  0
LINE
  5
107B
330
1F
100
AcDbEntity
  8
Rüttler
  6
VERDECKT
 62
     7
 48
0.3
370
    15
100
AcDbLine
 10
-909.6074957750448
 20
185.0499715228886
 30
0.0
 11
-913.6074957750448
 21
185.049971522888
 31
0.0
  0
LINE
  5
107C
330
1F
100
AcDbEntity
  8
Rüttler
  6
VERDECKT
 62
     7
 48
0.3
370
    15
100
AcDbLine
 10
-913.6074957750441
 20
179.8538191001814
 30
0.0
 11
-909.607495775044
 21
179.853819100182
 31
0.0
  0
LINE
  5
107D
330
1F
100
AcDbEntity
  8
Rüttler
  6
VERDECKT
 62
     7
 48
0.3
370
    15
100
AcDbLine
 10
-913.6074957750444
 20
183.3179207153191
 30
0.0
 11
-909.6074957750445
 21
183.3179207153197
 31
0.0
  0
LINE
  5
107E
330
1F
100
AcDbEntity
  8
Rüttler
  6
VERDECKT
 62
     7
 48
0.3
370
    15
100
AcDbLine
 10
-913.6074957750437
 20
178.1217682926126
 30
0.0
 11
-909.6074957750438
 21
178.1217682926131
 31
0.0
  0
LINE
  5
107F
330
1F
100
AcDbEntity
  8
Rüttler
100
AcDbLine
 10
-912.8074957750431
 20
175.0858699077504
 30
0.0
 11
-905.6074957750434
 21
175.0858699077514
 31
0.0
  0
LINE
  5
1080
330
1F
100
AcDbEntity
  8
Rüttler
100
AcDbLine
 10
-1014.253111852356
 20
197.3960070692682
 30
0.0
 11
-905.0074957750455
 21
197.3960070692682
 31
0.0
  0
LINE
  5
1081
330
1F
100
AcDbEntity
  8
0
  6
STRICHPUNKT
 48
2.0
370
    18
100
AcDbLine
 10
-916.0074957750444
 20
181.5858699077499
 30
0.0
 11
-856.9259477676682
 21
181.585869907755
 31
0.0
  0
ARC
  5
1082
330
1F
100
AcDbEntity
  8
Rüttler
100
AcDbCircle
 10
-1014.253111852356
 20
189.3960070692681
 30
0.0
 40
8.0
100
AcDbArc
 50
90.0
 51
165.8485817395108
  0
LINE
  5
1083
330
1F
100
AcDbEntity
  8
Rüttler
100
AcDbLine
 10
-913.607495775045
 20
187.2858699077503
 30
0.0
 11
-913.6074957750436
 21
175.8858699077502
 31
0.0
  0
ARC
  5
1084
330
1F
100
AcDbEntity
  8
Rüttler
100
AcDbCircle
 10
-912.8074957750435
 20
175.8858699077503
 30
0.0
 40
0.8000000000000113
100
AcDbArc
 50
180.0000000000065
 51
270.000000000013
  0
ARC
  5
1085
330
1F
100
AcDbEntity
  8
Rüttler
100
AcDbCircle
 10
-912.8074957750447
 20
187.2858699077504
 30
0.0
 40
0.8000000000000113
100
AcDbArc
 50
90.00000000001303
 51
180.0000000000065
  0
LINE
  5
1086
330
1F
100
AcDbEntity
  8
Rüttler
100
AcDbLine
 10
-864.5074957750458
 20
222.8960070692682
 30
0.0
 11
-864.5074957750458
 21
200.8960070692652
 31
0.0
  0
LINE
  5
1087
330
1F
100
AcDbEntity
  8
0
  6
STRICHPUNKT
370
    18
100
AcDbLine
 10
-844.5074957750458
 20
247.9463739285445
 30
0.0
 11
-844.5074957750458
 21
195.9429545896608
 31
0.0
  0
LINE
  5
1088
330
1F
100
AcDbEntity
  8
Rüttler
100
AcDbLine
 10
-824.5074957750458
 20
222.8960070692682
 30
0.0
 11
-824.5074957750459
 21
195.8960070692677
 31
0.0
  0
LINE
  5
1089
330
1F
100
AcDbEntity
  8
Rüttler
100
AcDbLine
 10
-858.5074957750458
 20
140.0960070692682
 30
0.0
 11
-843.5963846639344
 21
140.096007069268
 31
0.0
  0
LINE
  5
108A
330
1F
100
AcDbEntity
  8
Rüttler
100
AcDbLine
 10
-853.5131148465973
 20
200.8960070692644
 30
0.0
 11
-902.5074957750458
 21
200.8960070692682
 31
0.0
  0
LINE
  5
108B
330
1F
100
AcDbEntity
  8
Rüttler
100
AcDbLine
 10
-861.5074957750458
 20
158.4159955426615
 30
0.0
 11
-861.507495775046
 21
200.8960070692682
 31
0.0
  0
ARC
  5
108C
330
1F
100
AcDbEntity
  8
Rüttler
100
AcDbCircle
 10
-819.2661505745476
 20
179.6560013059647
 30
0.0
 40
47.28074755302426
100
AcDbArc
 50
153.3056052622227
 51
206.6943947377772
  0
LINE
  5
108D
330
1F
100
AcDbEntity
  8
Rüttler
100
AcDbLine
 10
-907.0074957750422
 20
160.444632658804
 30
0.0
 11
-907.0074957750435
 21
175.0858699077513
 31
0.0
  0
LINE
  5
108E
330
1F
100
AcDbEntity
  8
Rüttler
370
    15
100
AcDbLine
 10
-886.5074957750458
 20
158.4159955426615
 30
0.0
 11
-861.5074957750458
 21
158.4159955426615
 31
0.0
  0
ARC
  5
108F
330
1F
100
AcDbEntity
  8
Rüttler
100
AcDbCircle
 10
-908.5625838469159
 20
164.7260492971523
 30
0.0
 40
4.555088071873115
100
AcDbArc
 50
289.9619383924209
 51
0.0
  0
LINE
  5
1090
330
1F
100
AcDbEntity
  8
Rüttler
100
AcDbLine
 10
-905.6074957750434
 20
175.0858699077514
 30
0.0
 11
-905.6074957750452
 21
188.0858699077514
 31
0.0
  0
LINE
  5
1091
330
1F
100
AcDbEntity
  8
Rüttler
100
AcDbLine
 10
-904.0074957750433
 20
173.0858699077515
 30
0.0
 11
-904.0074957750455
 21
190.0858699077516
 31
0.0
  0
LINE
  5
1092
330
1F
100
AcDbEntity
  8
Rüttler
100
AcDbLine
 10
-905.6074957750453
 20
190.0858699077514
 30
0.0
 11
-905.6074957750432
 21
173.0858699077514
 31
0.0
  0
LINE
  5
1093
330
1F
100
AcDbEntity
  8
Rüttler
100
AcDbLine
 10
-904.0074957750433
 20
173.0858699077515
 30
0.0
 11
-905.6074957750432
 21
173.0858699077514
 31
0.0
  0
ARC
  5
1094
330
1F
100
AcDbEntity
  8
Rüttler
  6
VERDECKT
 62
     7
 48
0.3
370
    15
100
AcDbCircle
 10
-912.6074957750443
 20
181.5858699077504
 30
0.0
 40
3.464101615137725
100
AcDbArc
 50
330.000000000011
 51
30.00000000000672
  0
LINE
  5
1095
330
1F
100
AcDbEntity
  8
Rüttler
  6
VERDECKT
 62
     7
 48
0.3
370
    15
100
AcDbLine
 10
-909.6074957750438
 20
178.1217682926131
 30
0.0
 11
-907.6074957750442
 21
181.585869907751
 31
0.0
  0
ARC
  5
1096
330
1F
100
AcDbEntity
  8
Rüttler
  6
VERDECKT
 62
     7
 48
0.3
370
    15
100
AcDbCircle
 10
-911.1074957750441
 20
178.9877936963972
 30
0.0
 40
1.732050807568867
100
AcDbArc
 50
330.000000000011
 51
30.00000000000672
  0
LINE
  5
1097
330
1F
100
AcDbEntity
  8
Rüttler
  6
VERDECKT
 62
     7
 48
0.3
370
    15
100
AcDbLine
 10
-909.6074957750448
 20
185.0499715228886
 30
0.0
 11
-907.6074957750442
 21
181.585869907751
 31
0.0
  0
ARC
  5
1098
330
1F
100
AcDbEntity
  8
Rüttler
  6
VERDECKT
 62
     7
 48
0.3
370
    15
100
AcDbCircle
 10
-911.1074957750448
 20
184.183946119104
 30
0.0
 40
1.732050807568906
100
AcDbArc
 50
330.000000000011
 51
30.00000000000672
  0
LINE
  5
1099
330
1F
100
AcDbEntity
  8
Rüttler
100
AcDbLine
 10
-904.0074957750455
 20
200.8960070692682
 30
0.0
 11
-902.5074957750458
 21
200.8960070692682
 31
0.0
  0
LINE
  5
109A
330
1F
100
AcDbEntity
  8
Rüttler
100
AcDbLine
 10
-907.0074957750446
 20
188.0858699077512
 30
0.0
 11
-907.0074957750454
 21
197.3960070692682
 31
0.0
  0
ARC
  5
109B
330
1F
100
AcDbEntity
  8
Rüttler
100
AcDbCircle
 10
-905.0074957750455
 20
198.3960070692681
 30
0.0
 40
1.0
100
AcDbArc
 50
270.0
 51
0.0
  0
LINE
  5
109C
330
1F
100
AcDbEntity
  8
Rüttler
100
AcDbLine
 10
-904.0074957750455
 20
190.0858699077516
 30
0.0
 11
-905.6074957750453
 21
190.0858699077514
 31
0.0
  0
LINE
  5
109D
330
1F
100
AcDbEntity
  8
Rüttler
100
AcDbLine
 10
-902.5074957750458
 20
195.8960070692682
 30
0.0
 11
-902.5074957750458
 21
200.8960070692682
 31
0.0
  0
LINE
  5
109E
330
1F
100
AcDbEntity
  8
Rüttler
370
    15
100
AcDbLine
 10
-843.056803320252
 20
195.8960070692675
 30
0.0
 11
-843.0568033202527
 21
144.9522391624042
 31
0.0
  0
LINE
  5
109F
330
1F
100
AcDbEntity
  8
Rüttler
370
    15
100
AcDbLine
 10
-853.5131148465973
 20
200.8960070692644
 30
0.0
 11
-853.5131148465973
 21
140.0960070692681
 31
0.0
  0
CIRCLE
  5
10A0
330
1F
100
AcDbEntity
  8
Rüttler
100
AcDbCircle
 10
-833.0074957750458
 20
160.3960070692681
 30
0.0
 40
5.5
  0
ARC
  5
10A1
330
1F
100
AcDbEntity
  8
Rüttler
100
AcDbCircle
 10
-831.4521106369083
 20
158.8406219311307
 30
0.0
 40
10.0
100
AcDbArc
 50
96.34019174590505
 51
173.6598082540911
  0
CIRCLE
  5
10A2
330
1F
100
AcDbEntity
  8
Rüttler
100
AcDbCircle
 10
-833.0074957750458
 20
160.3960070692681
 30
0.0
 40
3.25
  0
ARC
  5
10A3
330
1F
100
AcDbEntity
  8
Rüttler
100
AcDbCircle
 10
-841.7315187556409
 20
212.1009697965383
 30
0.0
 40
16.25906504599928
100
AcDbArc
 50
223.5629980272099
 51
265.3246052408372
  0
ARC
  5
10A4
330
1F
100
AcDbEntity
  8
Rüttler
100
AcDbCircle
 10
-844.5074957750458
 20
222.8960070692682
 30
0.0
 40
20.0
100
AcDbArc
 50
0.0
 51
180.0
  0
CIRCLE
  5
10A5
330
1F
100
AcDbEntity
  8
Rüttler
100
AcDbCircle
 10
-844.5074957750458
 20
222.8960070692682
 30
0.0
 40
14.0
  0
LINE
  5
10A6
330
1F
100
AcDbEntity
  8
0
  6
STRICHPUNKT
370
    18
100
AcDbLine
 10
-869.5578626343221
 20
222.8960070692682
 30
0.0
 11
-819.4571289157693
 21
222.8960070692682
 31
0.0
  0
CIRCLE
  5
10A7
330
1F
100
AcDbEntity
  8
Rüttler
100
AcDbCircle
 10
-844.5074957750458
 20
222.8960070692682
 30
0.0
 40
8.5
  0
LINE
  5
10A8
330
1F
100
AcDbEntity
  8
Rüttler
100
AcDbLine
 10
-685.0074957750458
 20
200.8960070692682
 30
0.0
 11
-686.5074957750455
 21
200.8960070692682
 31
0.0
  0
LINE
  5
10A9
330
1F
100
AcDbEntity
  8
0
  6
STRICHPUNKT
 48
2.0
370
    18
100
AcDbLine
 10
-673.0074957750471
 20
181.5858699077499
 30
0.0
 11
-730.6313995510395
 21
181.585869907755
 31
0.0
  0
LINE
  5
10AA
330
1F
100
AcDbEntity
  8
0
  6
STRICHPUNKT
370
    18
100
AcDbLine
 10
-744.5074957750455
 20
247.9463739285445
 30
0.0
 11
-744.5074957750455
 21
195.9429545896608
 31
0.0
  0
LINE
  5
10AB
330
1F
100
AcDbEntity
  8
Rüttler
100
AcDbLine
 10
-724.5074957750455
 20
222.8960070692682
 30
0.0
 11
-724.5074957750455
 21
200.8960070692682
 31
0.0
  0
LINE
  5
10AC
330
1F
100
AcDbEntity
  8
Rüttler
100
AcDbLine
 10
-764.5074957750455
 20
222.8960070692682
 30
0.0
 11
-764.5074957750455
 21
195.8960070692684
 31
0.0
  0
ARC
  5
10AD
330
1F
100
AcDbEntity
  8
Rüttler
100
AcDbCircle
 10
-746.5569956874169
 20
211.9890406074351
 30
0.0
 40
16.14733906910849
100
AcDbArc
 50
274.7003583634081
 51
316.6078204529624
  0
LINE
  5
10AE
330
1F
100
AcDbEntity
  8
Rüttler
100
AcDbLine
 10
-795.5074957750458
 20
172.8960070692681
 30
0.0
 11
-758.4585656524345
 21
168.7794592778667
 31
0.0
  0
CIRCLE
  5
10AF
330
1F
100
AcDbEntity
  8
Rüttler
100
AcDbCircle
 10
-758.0074957750458
 20
160.3960070692681
 30
0.0
 40
5.5
  0
ARC
  5
10B0
330
1F
100
AcDbEntity
  8
Rüttler
100
AcDbCircle
 10
-759.5628809131831
 20
158.8406219311306
 30
0.0
 40
10.0
100
AcDbArc
 50
6.340191745908863
 51
83.65980825409494
  0
CIRCLE
  5
10B1
330
1F
100
AcDbEntity
  8
Rüttler
100
AcDbCircle
 10
-758.0074957750458
 20
160.3960070692681
 30
0.0
 40
3.25
  0
ARC
  5
10B2
330
1F
100
AcDbEntity
  8
Rüttler
100
AcDbCircle
 10
-769.7488409755437
 20
179.6560013059647
 30
0.0
 40
47.28074755302426
100
AcDbArc
 50
333.3056052622227
 51
26.69439473777722
  0
LINE
  5
10B3
330
1F
100
AcDbEntity
  8
Rüttler
100
AcDbLine
 10
-727.5074957750458
 20
158.4159955426615
 30
0.0
 11
-727.5074957750454
 21
200.8960070692682
 31
0.0
  0
LINE
  5
10B4
330
1F
100
AcDbEntity
  8
Rüttler
370
    15
100
AcDbLine
 10
-702.5074957750458
 20
158.4159955426615
 30
0.0
 11
-727.5074957750458
 21
158.4159955426615
 31
0.0
  0
LINE
  5
10B5
330
1F
100
AcDbEntity
  8
Rüttler
100
AcDbLine
 10
-715.5074957750455
 20
200.8960070692682
 30
0.0
 11
-686.5074957750455
 21
200.8960070692682
 31
0.0
  0
LINE
  5
10B6
330
1F
100
AcDbEntity
  8
Rüttler
100
AcDbLine
 10
-734.823233889346
 20
200.896007069268
 30
0.0
 11
-715.5074957750455
 21
200.8960070692684
 31
0.0
  0
LINE
  5
10B7
330
1F
100
AcDbEntity
  8
Rüttler
100
AcDbLine
 10
-686.5074957750455
 20
195.8960070692682
 30
0.0
 11
-686.5074957750455
 21
200.8960070692682
 31
0.0
  0
CIRCLE
  5
10B8
330
1F
100
AcDbEntity
  8
Rüttler
100
AcDbCircle
 10
-744.5074957750455
 20
222.8960070692682
 30
0.0
 40
8.5
  0
CIRCLE
  5
10B9
330
1F
100
AcDbEntity
  8
Rüttler
100
AcDbCircle
 10
-744.5074957750455
 20
222.8960070692682
 30
0.0
 40
14.0
  0
LINE
  5
10BA
330
1F
100
AcDbEntity
  8
0
  6
STRICHPUNKT
370
    18
100
AcDbLine
 10
-769.5578626343217
 20
222.8960070692682
 30
0.0
 11
-719.4571289157693
 21
222.8960070692682
 31
0.0
  0
ARC
  5
10BB
330
1F
100
AcDbEntity
  8
Rüttler
100
AcDbCircle
 10
-744.5074957750455
 20
222.8960070692682
 30
0.0
 40
20.0
100
AcDbArc
 50
0.0
 51
180.0
  0
LINE
  5
10BC
330
1F
100
AcDbEntity
  8
Rüttler
100
AcDbLine
 10
-574.7618796977351
 20
197.3960070692682
 30
0.0
 11
-684.0074957750458
 21
197.3960070692682
 31
0.0
  0
LINE
  5
10BD
330
1F
100
AcDbEntity
  8
Rüttler
100
AcDbLine
 10
-682.0074957750492
 20
160.444632658804
 30
0.0
 11
-682.007495775048
 21
175.0858699077513
 31
0.0
  0
ARC
  5
10BE
330
1F
100
AcDbEntity
  8
Rüttler
100
AcDbCircle
 10
-680.4524077031755
 20
164.7260492971523
 30
0.0
 40
4.555088071873115
100
AcDbArc
 50
180.0
 51
250.038061607579
  0
LINE
  5
10BF
330
1F
100
AcDbEntity
  8
Rüttler
100
AcDbLine
 10
-683.407495775046
 20
190.0858699077514
 30
0.0
 11
-683.4074957750483
 21
173.0858699077514
 31
0.0
  0
LINE
  5
10C0
330
1F
100
AcDbEntity
  8
Rüttler
100
AcDbLine
 10
-685.0074957750483
 20
173.0858699077515
 30
0.0
 11
-685.0074957750459
 21
190.0858699077516
 31
0.0
  0
LINE
  5
10C1
330
1F
100
AcDbEntity
  8
Rüttler
100
AcDbLine
 10
-683.407495775048
 20
175.0858699077514
 30
0.0
 11
-683.4074957750463
 21
188.0858699077514
 31
0.0
  0
LINE
  5
10C2
330
1F
100
AcDbEntity
  8
Rüttler
100
AcDbLine
 10
-675.4074957750465
 20
187.2858699077503
 30
0.0
 11
-675.4074957750479
 21
175.8858699077502
 31
0.0
  0
LINE
  5
10C3
330
1F
100
AcDbEntity
  8
Rüttler
100
AcDbLine
 10
-676.2074957750483
 20
175.0858699077504
 30
0.0
 11
-683.407495775048
 21
175.0858699077514
 31
0.0
  0
LINE
  5
10C4
330
1F
100
AcDbEntity
  8
Rüttler
  6
VERDECKT
 62
     7
 48
0.3
370
    15
100
AcDbLine
 10
-679.4074957750468
 20
185.0499715228886
 30
0.0
 11
-675.4074957750468
 21
185.049971522888
 31
0.0
  0
LINE
  5
10C5
330
1F
100
AcDbEntity
  8
Rüttler
  6
VERDECKT
 62
     7
 48
0.3
370
    15
100
AcDbLine
 10
-675.4074957750476
 20
178.1217682926126
 30
0.0
 11
-679.4074957750476
 21
178.1217682926131
 31
0.0
  0
LINE
  5
10C6
330
1F
100
AcDbEntity
  8
Rüttler
  6
VERDECKT
 62
     7
 48
0.3
370
    15
100
AcDbLine
 10
-675.407495775047
 20
183.3179207153191
 30
0.0
 11
-679.407495775047
 21
183.3179207153197
 31
0.0
  0
LINE
  5
10C7
330
1F
100
AcDbEntity
  8
Rüttler
  6
VERDECKT
 62
     7
 48
0.3
370
    15
100
AcDbLine
 10
-675.4074957750474
 20
179.8538191001814
 30
0.0
 11
-679.4074957750474
 21
179.853819100182
 31
0.0
  0
LINE
  5
10C8
330
1F
100
AcDbEntity
  8
Rüttler
100
AcDbLine
 10
-685.0074957750483
 20
173.0858699077515
 30
0.0
 11
-683.4074957750483
 21
173.0858699077514
 31
0.0
  0
ARC
  5
10C9
330
1F
100
AcDbEntity
  8
Rüttler
  6
VERDECKT
 62
     7
 48
0.3
370
    15
100
AcDbCircle
 10
-677.9074957750474
 20
178.9877936963972
 30
0.0
 40
1.732050807568867
100
AcDbArc
 50
149.9999999999932
 51
209.9999999999889
  0
LINE
  5
10CA
330
1F
100
AcDbEntity
  8
Rüttler
  6
VERDECKT
 62
     7
 48
0.3
370
    15
100
AcDbLine
 10
-679.4074957750476
 20
178.1217682926131
 30
0.0
 11
-681.4074957750472
 21
181.585869907751
 31
0.0
  0
ARC
  5
10CB
330
1F
100
AcDbEntity
  8
Rüttler
  6
VERDECKT
 62
     7
 48
0.3
370
    15
100
AcDbCircle
 10
-676.4074957750472
 20
181.5858699077504
 30
0.0
 40
3.464101615137725
100
AcDbArc
 50
149.9999999999932
 51
209.9999999999889
  0
ARC
  5
10CC
330
1F
100
AcDbEntity
  8
Rüttler
  6
VERDECKT
 62
     7
 48
0.3
370
    15
100
AcDbCircle
 10
-677.9074957750468
 20
184.183946119104
 30
0.0
 40
1.732050807568906
100
AcDbArc
 50
149.9999999999932
 51
209.9999999999889
  0
LINE
  5
10CD
330
1F
100
AcDbEntity
  8
Rüttler
  6
VERDECKT
 62
     7
 48
0.3
370
    15
100
AcDbLine
 10
-679.4074957750468
 20
185.0499715228886
 30
0.0
 11
-681.4074957750472
 21
181.585869907751
 31
0.0
  0
ARC
  5
10CE
330
1F
100
AcDbEntity
  8
Rüttler
100
AcDbCircle
 10
-676.207495775048
 20
175.8858699077503
 30
0.0
 40
0.8000000000000113
100
AcDbArc
 50
269.999999999987
 51
359.9999999999935
  0
LINE
  5
10CF
330
1F
100
AcDbEntity
  8
Rüttler
100
AcDbLine
 10
-683.4074957750463
 20
188.0858699077514
 30
0.0
 11
-676.2074957750464
 21
188.0858699077504
 31
0.0
  0
ARC
  5
10D0
330
1F
100
AcDbEntity
  8
Rüttler
100
AcDbCircle
 10
-684.0074957750458
 20
198.3960070692681
 30
0.0
 40
1.0
100
AcDbArc
 50
180.0
 51
270.0
  0
LINE
  5
10D1
330
1F
100
AcDbEntity
  8
Rüttler
100
AcDbLine
 10
-685.0074957750459
 20
190.0858699077516
 30
0.0
 11
-683.407495775046
 21
190.0858699077514
 31
0.0
  0
LINE
  5
10D2
330
1F
100
AcDbEntity
  8
Rüttler
100
AcDbLine
 10
-682.0074957750469
 20
188.0858699077512
 30
0.0
 11
-682.007495775046
 21
197.3960070692682
 31
0.0
  0
ARC
  5
10D3
330
1F
100
AcDbEntity
  8
Rüttler
100
AcDbCircle
 10
-676.2074957750467
 20
187.2858699077504
 30
0.0
 40
0.8000000000000113
100
AcDbArc
 50
359.9999999999935
 51
89.99999999998697
  0
ARC
  5
10D4
330
1F
100
AcDbEntity
  8
Rüttler
100
AcDbCircle
 10
-574.7618796977351
 20
189.3960070692681
 30
0.0
 40
8.0
100
AcDbArc
 50
14.15141826048912
 51
90.0
  0
LINE
  5
37C9
330
1F
100
AcDbEntity
  8
Rüttler
100
AcDbLine
 10
-886.5074957750458
 20
134.6460070692682
 30
0.0
 11
-886.5074957750458
 21
200.8960070692682
 31
0.0
  0
LINE
  5
37CA
330
1F
100
AcDbEntity
  8
Rüttler
100
AcDbLine
 10
-894.5074957750458
 20
134.3460070692682
 30
0.0
 11
-894.5074957750458
 21
200.8960070692682
 31
0.0
  0
LINE
  5
37DF
330
1F
100
AcDbEntity
  8
0
  6
STRICHPUNKT
 62
     7
 48
3.0
370
    18
100
AcDbLine
 10
-795.0074957750456
 20
512.4324130034349
 30
0.0
 11
-795.0074957750456
 21
479.5119975851625
 31
0.0
  0
LINE
  5
37E0
330
1F
100
AcDbEntity
  8
0
  6
STRICHPUNKT
 62
     7
 48
3.0
370
    18
100
AcDbLine
 10
-794.1453047351948
 20
203.5777026169007
 30
0.0
 11
-794.1453047351948
 21
42.21431152163586
 31
0.0
  0
LINE
  5
37E2
330
1F
100
AcDbEntity
  8
0
  6
STRICHPUNKT
 48
2.0
370
    18
100
AcDbLine
 10
-429.3053552064121
 20
476.750717455802
 30
0.0
 11
-380.9304557939999
 21
476.7507174558021
 31
0.0
  0
LINE
  5
38B9
330
1F
100
AcDbEntity
  8
0
370
    18
100
AcDbLine
 10
-810.0717252872222
 20
471.5404112716192
 30
0.0
 11
-809.3621352724736
 21
469.7882520400876
 31
0.0
  0
LINE
  5
38BA
330
1F
100
AcDbEntity
  8
0
370
    18
100
AcDbLine
 10
-809.8439014490507
 20
467.8360439700277
 30
0.0
 11
-808.569856708746
 21
467.8360439700277
 31
0.0
  0
LINE
  5
38BB
330
1F
100
AcDbEntity
  8
0
370
    18
100
AcDbLine
 10
-809.3933331559732
 20
473.9243072707836
 30
0.0
 11
-809.8528718203263
 21
472.2092856273753
 31
0.0
  0
LINE
  5
38BC
330
1F
100
AcDbEntity
  8
0
370
    18
100
AcDbLine
 10
-808.8602895933966
 20
475.9136529289667
 30
0.0
 11
-810.202554724186
 21
475.9136529289667
 31
0.0
  0
LWPOLYLINE
  5
38BD
330
1F
100
AcDbEntity
  8
0
  6
Continuous
100
AcDbPolyline
 90
        4
 70
     1
 43
0.0
 10
-819.486187980677
 20
462.5247727547098
 10
-770.5288035694142
 20
462.5247727547098
 10
-770.5288035694142
 20
479.5119975851625
 10
-819.486187980677
 20
479.5119975851625
  0
LINE
  5
38BE
330
1F
100
AcDbEntity
  8
0
370
    18
100
AcDbLine
 10
-811.3329111344887
 20
471.5404112716192
 30
0.0
 11
-812.3254933614184
 21
467.8360439700277
 31
0.0
  0
LINE
  5
38BF
330
1F
100
AcDbEntity
  8
0
370
    18
100
AcDbLine
 10
-815.6592569464876
 20
471.5404112716192
 30
0.0
 11
-816.6518391734182
 21
467.8360439700277
 31
0.0
  0
LINE
  5
38C0
330
1F
100
AcDbEntity
  8
0
370
    18
100
AcDbLine
 10
-814.6297822781246
 20
470.5212360657865
 30
0.0
 11
-814.7538293528745
 21
470.058286080291
 31
0.0
  0
LINE
  5
38C1
330
1F
100
AcDbEntity
  8
0
370
    18
100
AcDbLine
 10
-816.6518391734173
 20
467.8360439700277
 30
0.0
 11
-812.8564992316681
 21
467.8360439700277
 31
0.0
  0
LINE
  5
38C2
330
1F
100
AcDbEntity
  8
0
370
    18
100
AcDbLine
 10
-812.2610512528357
 20
470.058286080291
 30
0.0
 11
-814.7538293528745
 21
470.058286080291
 31
0.0
  0
LINE
  5
38C3
330
1F
100
AcDbEntity
  8
0
370
    18
100
AcDbLine
 10
-815.0765350314035
 20
468.853932092125
 30
0.0
 11
-812.5734809640002
 21
468.853932092125
 31
0.0
  0
LINE
  5
38C4
330
1F
100
AcDbEntity
  8
0
370
    18
100
AcDbLine
 10
-814.9522234077843
 20
469.3178693874456
 30
0.0
 11
-812.4594453077465
 21
469.3178693874456
 31
0.0
  0
LINE
  5
38C5
330
1F
100
AcDbEntity
  8
0
370
    18
100
AcDbLine
 10
-814.9522234077843
 20
469.3178693874456
 30
0.0
 11
-815.0765350314035
 21
468.853932092125
 31
0.0
  0
LINE
  5
38C6
330
1F
100
AcDbEntity
  8
0
370
    18
100
AcDbLine
 10
-814.9522234077843
 20
469.3178693874456
 30
0.0
 11
-815.0662590640379
 21
468.892282524434
 31
0.0
  0
LINE
  5
38C7
330
1F
100
AcDbEntity
  8
0
370
    18
100
AcDbLine
 10
-812.8564992316681
 20
467.8360439700277
 30
0.0
 11
-812.5837569313657
 21
468.853932092125
 31
0.0
  0
LINE
  5
38C8
330
1F
100
AcDbEntity
  8
0
370
    18
100
AcDbLine
 10
-810.5510367555001
 20
469.5971792058685
 30
0.0
 11
-811.0229315197059
 21
467.8360439700277
 31
0.0
  0
LINE
  5
38C9
330
1F
100
AcDbEntity
  8
0
370
    18
100
AcDbLine
 10
-812.3254933614184
 20
467.8360439700277
 30
0.0
 11
-811.0229315197059
 21
467.8360439700277
 31
0.0
  0
LINE
  5
38CA
330
1F
100
AcDbEntity
  8
0
370
    18
100
AcDbLine
 10
-812.4594453077465
 20
469.3178693874456
 30
0.0
 11
-812.2610512528357
 21
470.058286080291
 31
0.0
  0
LINE
  5
38CB
330
1F
100
AcDbEntity
  8
0
370
    18
100
AcDbLine
 10
-809.8439014490507
 20
467.8360439700277
 30
0.0
 11
-810.5510367555001
 21
469.5971792058685
 31
0.0
  0
LINE
  5
38CC
330
1F
100
AcDbEntity
  8
0
370
    18
100
AcDbLine
 10
-811.8639170047384
 20
471.5404112716192
 30
0.0
 11
-815.6592569464876
 21
471.5404112716192
 31
0.0
  0
LINE
  5
38CD
330
1F
100
AcDbEntity
  8
0
370
    18
100
AcDbLine
 10
-812.137004178087
 20
470.5212360657865
 30
0.0
 11
-811.8639170047384
 21
471.5404112716192
 31
0.0
  0
LINE
  5
38CE
330
1F
100
AcDbEntity
  8
0
370
    18
100
AcDbLine
 10
-812.137004178087
 20
470.5212360657865
 30
0.0
 11
-814.6400582454901
 21
470.5212360657865
 31
0.0
  0
LINE
  5
38CF
330
1F
100
AcDbEntity
  8
0
370
    18
100
AcDbLine
 10
-810.202554724186
 20
475.9136529289667
 30
0.0
 11
-811.1951369511157
 21
472.2092856273753
 31
0.0
  0
LWPOLYLINE
  5
38D0
330
1F
100
AcDbEntity
  8
0
370
    18
100
AcDbPolyline
 90
        4
 70
     1
 43
0.0
 10
-814.8066001640613
 20
474.4916553096349
 10
-815.4021495002193
 20
472.2690349286799
 10
-811.9506105924742
 20
472.2690349286799
 10
-811.355061256316
 20
474.4916553096349
  0
LINE
  5
38D1
330
1F
100
AcDbEntity
  8
0
370
    18
100
AcDbLine
 10
-810.0717252872222
 20
471.5404112716192
 30
0.0
 11
-811.3329111344887
 21
471.5404112716192
 31
0.0
  0
LINE
  5
38D2
330
1F
100
AcDbEntity
  8
0
370
    18
100
AcDbLine
 10
-811.1951369511157
 20
472.2092856273753
 30
0.0
 11
-809.8528718203263
 21
472.2092856273753
 31
0.0
  0
ARC
  5
38D3
330
1F
100
AcDbEntity
  8
0
370
    18
100
AcDbCircle
 10
-786.5208510723754
 20
474.9011917118473
 30
0.0
 40
0.7682193793950698
100
AcDbArc
 50
270.1852188608381
 51
291.3103783431897
  0
LINE
  5
38D4
330
1F
100
AcDbEntity
  8
0
370
    18
100
AcDbLine
 10
-786.6352653169708
 20
467.8459697922967
 30
0.0
 11
-784.9262608300654
 21
467.8459697922967
 31
0.0
  0
LINE
  5
38D5
330
1F
100
AcDbEntity
  8
0
370
    18
100
AcDbLine
 10
-786.772367592753
 20
472.2092856273753
 30
0.0
 11
-785.0633631058475
 21
472.2092856273753
 31
0.0
  0
LWPOLYLINE
  5
38D6
330
1F
100
AcDbEntity
  8
0
370
    18
100
AcDbPolyline
 90
        4
 70
     1
 43
0.0
 10
-798.0344432924124
 20
467.2475600429392
 10
-798.6299926285704
 20
465.0249396619842
 10
-775.578986710468
 20
465.0249396619842
 10
-774.98343737431
 20
467.2475600429392
  0
LINE
  5
38D7
330
1F
100
AcDbEntity
  8
0
370
    18
100
AcDbLine
 10
-786.3812653971075
 20
469.7696605113983
 30
0.0
 11
-787.5476331712765
 21
469.7696605113983
 31
0.0
  0
LINE
  5
38D8
330
1F
100
AcDbEntity
  8
0
370
    18
100
AcDbLine
 10
-785.0332222448945
 20
471.5503370938882
 30
0.0
 11
-788.3730641607302
 21
471.5503370938882
 31
0.0
  0
LINE
  5
38D9
330
1F
100
AcDbEntity
  8
0
370
    18
100
AcDbLine
 10
-785.1703245206756
 20
475.9136529289667
 30
0.0
 11
-788.5101664365123
 21
475.9136529289667
 31
0.0
  0
LINE
  5
38DA
330
1F
100
AcDbEntity
  8
0
370
    18
100
AcDbLine
 10
-786.1906384504758
 20
470.6737567405403
 30
0.0
 11
-787.3053813167984
 21
470.6737567405403
 31
0.0
  0
LINE
  5
38DB
330
1F
100
AcDbEntity
  8
0
370
    18
100
AcDbLine
 10
-786.327740726257
 20
475.0370725756188
 30
0.0
 11
-787.4424835925796
 21
475.0370725756188
 31
0.0
  0
LINE
  5
38DC
330
1F
100
AcDbEntity
  8
0
370
    18
100
AcDbLine
 10
-798.3893992365623
 20
467.8360439700277
 30
0.0
 11
-797.3968170096317
 21
471.5404112716192
 31
0.0
  0
ARC
  5
38DD
330
1F
100
AcDbEntity
  8
0
370
    18
100
AcDbCircle
 10
-796.9854414061313
 20
473.229775611991
 30
0.0
 40
0.9587608077068694
100
AcDbArc
 50
165.0000000000055
 51
261.6882763531171
  0
LINE
  5
38DE
330
1F
100
AcDbEntity
  8
0
370
    18
100
AcDbLine
 10
-797.3968170096317
 20
471.5404112716192
 30
0.0
 11
-798.7121881491897
 21
471.5404112716192
 31
0.0
  0
LINE
  5
38DF
330
1F
100
AcDbEntity
  8
0
370
    18
100
AcDbLine
 10
-802.9565953601917
 20
471.5404112716192
 30
0.0
 11
-803.9491775871214
 21
467.8360439700277
 31
0.0
  0
LINE
  5
38E0
330
1F
100
AcDbEntity
  8
0
370
    18
100
AcDbLine
 10
-801.6143302294025
 20
471.5404112716192
 30
0.0
 11
-802.6069124563314
 21
467.8360439700277
 31
0.0
  0
LINE
  5
38E1
330
1F
100
AcDbEntity
  8
0
370
    18
100
AcDbLine
 10
-801.1524536623049
 20
471.5404112716192
 30
0.0
 11
-802.1450358892346
 21
467.8360439700277
 31
0.0
  0
LINE
  5
38E2
330
1F
100
AcDbEntity
  8
0
370
    18
100
AcDbLine
 10
-799.8912678150385
 20
471.5404112716192
 30
0.0
 11
-799.1816778002897
 21
469.7882520400876
 31
0.0
  0
LINE
  5
38E3
330
1F
100
AcDbEntity
  8
0
370
    18
100
AcDbLine
 10
-799.1816778002897
 20
469.7882520400876
 30
0.0
 11
-798.7121881491897
 21
471.5404112716192
 31
0.0
  0
LINE
  5
38E4
330
1F
100
AcDbEntity
  8
0
370
    18
100
AcDbLine
 10
-808.569856708746
 20
467.8360439700277
 30
0.0
 11
-807.5772744818163
 21
471.5404112716192
 31
0.0
  0
LINE
  5
38E5
330
1F
100
AcDbEntity
  8
0
370
    18
100
AcDbLine
 10
-809.3621352724736
 20
469.7882520400876
 30
0.0
 11
-808.8926456213743
 21
471.5404112716192
 31
0.0
  0
ARC
  5
38E6
330
1F
100
AcDbEntity
  8
0
370
    18
100
AcDbCircle
 10
-799.7025813739131
 20
467.716649300933
 30
0.0
 40
8.224997010073714
100
AcDbArc
 50
157.387404400783
 51
171.0200151799472
  0
ARC
  5
38E7
330
1F
100
AcDbEntity
  8
0
370
    18
100
AcDbCircle
 10
-800.2785471716409
 20
467.9683917597181
 30
0.0
 40
6.22149298766157
100
AcDbArc
 50
158.0969939507809
 51
170.485613640356
  0
LINE
  5
38E8
330
1F
100
AcDbEntity
  8
0
370
    18
100
AcDbLine
 10
-803.9491775871214
 20
467.8360439700277
 30
0.0
 11
-802.6069124563314
 21
467.8360439700277
 31
0.0
  0
ARC
  5
38E9
330
1F
100
AcDbEntity
  8
0
370
    18
100
AcDbCircle
 10
-806.0291462904563
 20
474.9523178347121
 30
0.0
 40
7.119253077153191
100
AcDbArc
 50
262.0635437036931
 51
271.6576250419802
  0
LINE
  5
38EA
330
1F
100
AcDbEntity
  8
0
370
    18
100
AcDbLine
 10
-804.4082029775985
 20
467.8360439700277
 30
0.0
 11
-806.1372473087379
 21
467.8360439700277
 31
0.0
  0
ARC
  5
38EB
330
1F
100
AcDbEntity
  8
0
370
    18
100
AcDbCircle
 10
-805.233496980461
 20
468.9865569392755
 30
0.0
 40
1.150512969248243
100
AcDbArc
 50
270.0
 51
270.0
  0
ARC
  5
38EC
330
1F
100
AcDbEntity
  8
0
370
    18
100
AcDbCircle
 10
-806.8605829419442
 20
469.4340435392237
 30
0.0
 40
1.422878199650913
100
AcDbArc
 50
334.2263645027579
 51
11.71383119334169
  0
ARC
  5
38ED
330
1F
100
AcDbEntity
  8
0
370
    18
100
AcDbCircle
 10
-805.9936776553689
 20
469.0154571657617
 30
0.0
 40
0.4602051876992975
100
AcDbArc
 50
270.0
 51
334.2263645027579
  0
LINE
  5
38EE
330
1F
100
AcDbEntity
  8
0
370
    18
100
AcDbLine
 10
-806.0353678772047
 20
468.5552519780626
 30
0.0
 11
-805.9936776553689
 21
468.5552519780626
 31
0.0
  0
ARC
  5
38EF
330
1F
100
AcDbEntity
  8
0
370
    18
100
AcDbCircle
 10
-806.0353678772047
 20
468.9387563011455
 30
0.0
 40
0.3835043230827479
100
AcDbArc
 50
171.2985646492444
 51
270.0
  0
ARC
  5
38F0
330
1F
100
AcDbEntity
  8
0
370
    18
100
AcDbCircle
 10
-806.8797547938324
 20
468.8508319356965
 30
0.0
 40
0.9587608077068694
100
AcDbArc
 50
171.0200151799472
 51
262.0635437036931
  0
LINE
  5
38F1
330
1F
100
AcDbEntity
  8
0
370
    18
100
AcDbLine
 10
-804.4082029775985
 20
467.8360439700277
 30
0.0
 11
-803.9026156676166
 21
469.7229214985413
 31
0.0
  0
LINE
  5
38F2
330
1F
100
AcDbEntity
  8
0
370
    18
100
AcDbLine
 10
-805.4673378466135
 20
469.7229214985413
 30
0.0
 11
-803.9026156676166
 21
469.7229214985413
 31
0.0
  0
LINE
  5
38F3
330
1F
100
AcDbEntity
  8
0
370
    18
100
AcDbLine
 10
-800.3705792833164
 20
469.5971792058685
 30
0.0
 11
-800.8424740475224
 21
467.8360439700277
 31
0.0
  0
LINE
  5
38F4
330
1F
100
AcDbEntity
  8
0
370
    18
100
AcDbLine
 10
-799.6634439768671
 20
467.8360439700277
 30
0.0
 11
-800.3705792833164
 21
469.5971792058685
 31
0.0
  0
LINE
  5
38F5
330
1F
100
AcDbEntity
  8
0
370
    18
100
AcDbLine
 10
-802.1450358892346
 20
467.8360439700277
 30
0.0
 11
-800.8424740475224
 21
467.8360439700277
 31
0.0
  0
LINE
  5
38F6
330
1F
100
AcDbEntity
  8
0
370
    18
100
AcDbLine
 10
-799.6634439768671
 20
467.8360439700277
 30
0.0
 11
-798.3893992365623
 21
467.8360439700277
 31
0.0
  0
ARC
  5
38F7
330
1F
100
AcDbEntity
  8
0
370
    18
100
AcDbCircle
 10
-805.1806514227603
 20
461.7318305658513
 30
0.0
 40
8.85764661435673
100
AcDbArc
 50
80.02650671627761
 51
93.02614479233053
  0
LINE
  5
38F8
330
1F
100
AcDbEntity
  8
0
370
    18
100
AcDbLine
 10
-804.0105898039312
 20
474.1614936974351
 30
0.0
 11
-803.5411001528313
 21
475.9136529289667
 31
0.0
  0
ARC
  5
38F9
330
1F
100
AcDbEntity
  8
0
370
    18
100
AcDbCircle
 10
-805.0160989083154
 20
457.0733151868194
 30
0.0
 40
14.46807838019826
100
AcDbArc
 50
83.51735091136804
 51
95.9233444042366
  0
LINE
  5
38FA
330
1F
100
AcDbEntity
  8
0
370
    18
100
AcDbLine
 10
-804.4923559805086
 20
472.2092856273753
 30
0.0
 11
-803.218311240203
 21
472.2092856273753
 31
0.0
  0
ARC
  5
38FB
330
1F
100
AcDbEntity
  8
0
370
    18
100
AcDbCircle
 10
-805.6239661117427
 20
470.117562173807
 30
0.0
 40
0.4602051876992975
100
AcDbArc
 50
93.02614479233053
 51
158.0969939507809
  0
LINE
  5
38FC
330
1F
100
AcDbEntity
  8
0
370
    18
100
AcDbLine
 10
-807.9619978032036
 20
475.9136529289667
 30
0.0
 11
-809.2580889946479
 21
474.4290453522776
 31
0.0
  0
LINE
  5
38FD
330
1F
100
AcDbEntity
  8
0
370
    18
100
AcDbLine
 10
-808.8602895933966
 20
475.9136529289667
 30
0.0
 11
-809.2580889946479
 21
474.4290453522776
 31
0.0
  0
LINE
  5
38FE
330
1F
100
AcDbEntity
  8
0
370
    18
100
AcDbLine
 10
-804.7201798186801
 20
475.9136529289667
 30
0.0
 11
-805.9813656659466
 21
475.9136529289667
 31
0.0
  0
LINE
  5
38FF
330
1F
100
AcDbEntity
  8
0
370
    18
100
AcDbLine
 10
-806.3675114933587
 20
475.9136529289667
 30
0.0
 11
-808.0265095122388
 21
474.0133537487849
 31
0.0
  0
LINE
  5
3900
330
1F
100
AcDbEntity
  8
0
370
    18
100
AcDbLine
 10
-806.3675114933587
 20
475.9136529289667
 30
0.0
 11
-807.9619978032036
 21
475.9136529289667
 31
0.0
  0
LINE
  5
3901
330
1F
100
AcDbEntity
  8
0
370
    18
100
AcDbLine
 10
-804.7201798186801
 20
475.9136529289667
 30
0.0
 11
-804.0105898039312
 21
474.1614936974351
 31
0.0
  0
LINE
  5
3902
330
1F
100
AcDbEntity
  8
0
370
    18
100
AcDbLine
 10
-807.5772744818154
 20
471.5404112716192
 30
0.0
 11
-808.8926456213743
 21
471.5404112716192
 31
0.0
  0
LINE
  5
3903
330
1F
100
AcDbEntity
  8
0
370
    18
100
AcDbLine
 10
-806.9739478928763
 20
472.2092856273753
 30
0.0
 11
-805.671386051164
 21
472.2092856273753
 31
0.0
  0
LINE
  5
3904
330
1F
100
AcDbEntity
  8
0
370
    18
100
AcDbLine
 10
-808.8006941035823
 20
472.2092856273753
 30
0.0
 11
-807.3600937202884
 21
472.2092856273753
 31
0.0
  0
ARC
  5
3905
330
1F
100
AcDbEntity
  8
0
370
    18
100
AcDbCircle
 10
-806.4102308517179
 20
470.5105045282993
 30
0.0
 40
0.9587608077068694
100
AcDbArc
 50
95.9233444042366
 51
157.387404400783
  0
LINE
  5
3906
330
1F
100
AcDbEntity
  8
0
370
    18
100
AcDbLine
 10
-809.3933331559732
 20
473.9243072707836
 30
0.0
 11
-808.7647196316423
 21
472.2225744582806
 31
0.0
  0
LINE
  5
3907
330
1F
100
AcDbEntity
  8
0
370
    18
100
AcDbLine
 10
-805.9813656659466
 20
475.9136529289667
 30
0.0
 11
-806.9739478928763
 21
472.2092856273753
 31
0.0
  0
LINE
  5
3908
330
1F
100
AcDbEntity
  8
0
370
    18
100
AcDbLine
 10
-805.199491286958
 20
473.9704208632161
 30
0.0
 11
-805.671386051164
 21
472.2092856273753
 31
0.0
  0
LINE
  5
3909
330
1F
100
AcDbEntity
  8
0
370
    18
100
AcDbLine
 10
-804.4923559805086
 20
472.2092856273753
 30
0.0
 11
-805.199491286958
 21
473.9704208632161
 31
0.0
  0
LINE
  5
390A
330
1F
100
AcDbEntity
  8
0
370
    18
100
AcDbLine
 10
-808.0265095122388
 20
474.0133537487849
 30
0.0
 11
-807.3600937202884
 21
472.2092856273753
 31
0.0
  0
LINE
  5
390B
330
1F
100
AcDbEntity
  8
0
370
    18
100
AcDbLine
 10
-803.6465729476807
 20
470.4556202685621
 30
0.0
 11
-803.3826192254176
 21
471.4488859977859
 31
0.0
  0
LINE
  5
390C
330
1F
100
AcDbEntity
  8
0
370
    18
100
AcDbLine
 10
-798.1909691200065
 20
472.2073497591659
 30
0.0
 11
-798.378296162717
 21
475.9136529289667
 31
0.0
  0
LINE
  5
390D
330
1F
100
AcDbEntity
  8
0
370
    18
100
AcDbLine
 10
-802.2257290132733
 20
475.9136529289667
 30
0.0
 11
-803.5411001528313
 21
475.9136529289667
 31
0.0
  0
LINE
  5
390E
330
1F
100
AcDbEntity
  8
0
370
    18
100
AcDbLine
 10
-801.0250274062231
 20
472.7376709701525
 30
0.0
 11
-799.521638798777
 21
472.7376709701525
 31
0.0
  0
LINE
  5
390F
330
1F
100
AcDbEntity
  8
0
370
    18
100
AcDbLine
 10
-800.5859580063737
 20
473.5417333596638
 30
0.0
 11
-799.5622783856328
 21
473.5417333596638
 31
0.0
  0
LINE
  5
3910
330
1F
100
AcDbEntity
  8
0
370
    18
100
AcDbLine
 10
-800.5859580063737
 20
473.5417333596638
 30
0.0
 11
-799.6490016241218
 21
475.257570053905
 31
0.0
  0
LINE
  5
3911
330
1F
100
AcDbEntity
  8
0
370
    18
100
AcDbLine
 10
-799.5622783856328
 20
473.5417333596638
 30
0.0
 11
-799.6490016241218
 21
475.257570053905
 31
0.0
  0
LINE
  5
3912
330
1F
100
AcDbEntity
  8
0
370
    18
100
AcDbLine
 10
-799.8912678150385
 20
471.5404112716192
 30
0.0
 11
-801.1524536623049
 21
471.5404112716192
 31
0.0
  0
LINE
  5
3913
330
1F
100
AcDbEntity
  8
0
370
    18
100
AcDbLine
 10
-801.6143302294025
 20
471.5404112716192
 30
0.0
 11
-802.9565953601917
 21
471.5404112716192
 31
0.0
  0
LINE
  5
3914
330
1F
100
AcDbEntity
  8
0
370
    18
100
AcDbLine
 10
-802.9115560534603
 20
472.2092856273753
 30
0.0
 11
-801.3135595380193
 21
472.2092856273753
 31
0.0
  0
LINE
  5
3915
330
1F
100
AcDbEntity
  8
0
370
    18
100
AcDbLine
 10
-803.218311240203
 20
472.2092856273753
 30
0.0
 11
-802.2257290132733
 21
475.9136529289667
 31
0.0
  0
LINE
  5
3916
330
1F
100
AcDbEntity
  8
0
370
    18
100
AcDbLine
 10
-802.9115560534603
 20
472.2092856273753
 30
0.0
 11
-800.888735002319
 21
475.9136529289667
 31
0.0
  0
LINE
  5
3917
330
1F
100
AcDbEntity
  8
0
370
    18
100
AcDbLine
 10
-801.3135595380193
 20
472.2092856273753
 30
0.0
 11
-801.0250274062231
 21
472.7376709701525
 31
0.0
  0
LINE
  5
3918
330
1F
100
AcDbEntity
  8
0
370
    18
100
AcDbLine
 10
-799.4949327094103
 20
472.2092856273753
 30
0.0
 11
-799.521638798777
 21
472.7376709701525
 31
0.0
  0
LINE
  5
3919
330
1F
100
AcDbEntity
  8
0
370
    18
100
AcDbLine
 10
-798.378296162717
 20
475.9136529289667
 30
0.0
 11
-800.888735002319
 21
475.9136529289667
 31
0.0
  0
LINE
  5
391A
330
1F
100
AcDbEntity
  8
0
370
    18
100
AcDbLine
 10
-799.4949327094103
 20
472.2092856273753
 30
0.0
 11
-798.1910669642596
 21
472.2092856273753
 31
0.0
  0
LINE
  5
391B
330
1F
100
AcDbEntity
  8
0
370
    18
100
AcDbLine
 10
-788.3730641607302
 20
471.5503370938882
 30
0.0
 11
-789.3683060037204
 21
467.8360439700277
 31
0.0
  0
LINE
  5
391C
330
1F
100
AcDbEntity
  8
0
370
    18
100
AcDbLine
 10
-796.9184563828725
 20
471.5404112716192
 30
0.0
 11
-797.9110386098022
 21
467.8360439700277
 31
0.0
  0
LINE
  5
391D
330
1F
100
AcDbEntity
  8
0
370
    18
100
AcDbLine
 10
-792.6827210093173
 20
471.5404112716192
 30
0.0
 11
-793.6753032362479
 21
467.8360439700277
 31
0.0
  0
LINE
  5
391E
330
1F
100
AcDbEntity
  8
0
370
    18
100
AcDbLine
 10
-795.8889817145085
 20
470.5212360657865
 30
0.0
 11
-796.0130287892574
 21
470.058286080291
 31
0.0
  0
LINE
  5
391F
330
1F
100
AcDbEntity
  8
0
370
    18
100
AcDbLine
 10
-787.5476331712765
 20
469.7696605113983
 30
0.0
 11
-787.3053813167984
 21
470.6737567405403
 31
0.0
  0
LINE
  5
3920
330
1F
100
AcDbEntity
  8
0
370
    18
100
AcDbLine
 10
-791.6532463409542
 20
470.5212360657865
 30
0.0
 11
-791.777293415704
 21
470.058286080291
 31
0.0
  0
LINE
  5
3921
330
1F
100
AcDbEntity
  8
0
370
    18
100
AcDbLine
 10
-793.6753032362479
 20
467.8360439700277
 30
0.0
 11
-789.8799632944967
 21
467.8360439700277
 31
0.0
  0
LINE
  5
3922
330
1F
100
AcDbEntity
  8
0
370
    18
100
AcDbLine
 10
-797.9110386098022
 20
467.8360439700277
 30
0.0
 11
-794.1156986680519
 21
467.8360439700277
 31
0.0
  0
LINE
  5
3923
330
1F
100
AcDbEntity
  8
0
370
    18
100
AcDbLine
 10
-794.1156986680519
 20
467.8360439700277
 30
0.0
 11
-793.8429563677503
 21
468.853932092125
 31
0.0
  0
LINE
  5
3924
330
1F
100
AcDbEntity
  8
0
370
    18
100
AcDbLine
 10
-796.3357344677883
 20
468.853932092125
 30
0.0
 11
-793.832680400384
 21
468.853932092125
 31
0.0
  0
LINE
  5
3925
330
1F
100
AcDbEntity
  8
0
370
    18
100
AcDbLine
 10
-796.2114228441682
 20
469.3178693874456
 30
0.0
 11
-796.3357344677883
 21
468.853932092125
 31
0.0
  0
LINE
  5
3926
330
1F
100
AcDbEntity
  8
0
370
    18
100
AcDbLine
 10
-796.2114228441682
 20
469.3178693874456
 30
0.0
 11
-793.7186447441303
 21
469.3178693874456
 31
0.0
  0
LINE
  5
3927
330
1F
100
AcDbEntity
  8
0
370
    18
100
AcDbLine
 10
-793.7186447441303
 20
469.3178693874456
 30
0.0
 11
-793.5202506892196
 21
470.058286080291
 31
0.0
  0
LINE
  5
3928
330
1F
100
AcDbEntity
  8
0
370
    18
100
AcDbLine
 10
-793.5202506892196
 20
470.058286080291
 30
0.0
 11
-796.0130287892574
 21
470.058286080291
 31
0.0
  0
LINE
  5
3929
330
1F
100
AcDbEntity
  8
0
370
    18
100
AcDbLine
 10
-796.2114228441682
 20
469.3178693874456
 30
0.0
 11
-796.3254585004217
 21
468.892282524434
 31
0.0
  0
LINE
  5
392A
330
1F
100
AcDbEntity
  8
0
370
    18
100
AcDbLine
 10
-789.2845153156653
 20
470.058286080291
 30
0.0
 11
-791.777293415704
 21
470.058286080291
 31
0.0
  0
LINE
  5
392B
330
1F
100
AcDbEntity
  8
0
370
    18
100
AcDbLine
 10
-792.099999094234
 20
468.853932092125
 30
0.0
 11
-789.5969450268296
 21
468.853932092125
 31
0.0
  0
LINE
  5
392C
330
1F
100
AcDbEntity
  8
0
370
    18
100
AcDbLine
 10
-791.9756874706139
 20
469.3178693874456
 30
0.0
 11
-789.4829093705761
 21
469.3178693874456
 31
0.0
  0
LINE
  5
392D
330
1F
100
AcDbEntity
  8
0
370
    18
100
AcDbLine
 10
-791.9756874706139
 20
469.3178693874456
 30
0.0
 11
-792.099999094234
 21
468.853932092125
 31
0.0
  0
LINE
  5
392E
330
1F
100
AcDbEntity
  8
0
370
    18
100
AcDbLine
 10
-791.9756874706139
 20
469.3178693874456
 30
0.0
 11
-792.0897231268667
 21
468.892282524434
 31
0.0
  0
LINE
  5
392F
330
1F
100
AcDbEntity
  8
0
370
    18
100
AcDbLine
 10
-789.8799632944967
 20
467.8360439700277
 30
0.0
 11
-789.6072209941962
 21
468.853932092125
 31
0.0
  0
LINE
  5
3930
330
1F
100
AcDbEntity
  8
0
370
    18
100
AcDbLine
 10
-787.6387936122431
 20
469.4294451140699
 30
0.0
 11
-788.0630845459476
 21
467.8459697922967
 31
0.0
  0
LINE
  5
3931
330
1F
100
AcDbEntity
  8
0
370
    18
100
AcDbLine
 10
-789.3656463876599
 20
467.8459697922967
 30
0.0
 11
-788.0630845459476
 21
467.8459697922967
 31
0.0
  0
LINE
  5
3932
330
1F
100
AcDbEntity
  8
0
370
    18
100
AcDbLine
 10
-789.4829093705761
 20
469.3178693874456
 30
0.0
 11
-789.2845153156653
 21
470.058286080291
 31
0.0
  0
LINE
  5
3933
330
1F
100
AcDbEntity
  8
0
370
    18
100
AcDbLine
 10
-787.6387936122431
 20
469.4294451140699
 30
0.0
 11
-786.6352653169708
 21
467.8459697922967
 31
0.0
  0
LINE
  5
3934
330
1F
100
AcDbEntity
  8
0
370
    18
100
AcDbLine
 10
-792.258397359665
 20
473.2271737494734
 30
0.0
 11
-789.7553432922608
 21
473.2271737494734
 31
0.0
  0
LINE
  5
3935
330
1F
100
AcDbEntity
  8
0
370
    18
100
AcDbLine
 10
-792.1340857360458
 20
473.6911110447931
 30
0.0
 11
-792.258397359665
 21
473.2271737494734
 31
0.0
  0
LINE
  5
3936
330
1F
100
AcDbEntity
  8
0
370
    18
100
AcDbLine
 10
-792.1340857360458
 20
473.6911110447931
 30
0.0
 11
-792.2481213922987
 21
473.2655241817815
 31
0.0
  0
LINE
  5
3937
330
1F
100
AcDbEntity
  8
0
370
    18
100
AcDbLine
 10
-789.0457793329991
 20
475.9136529289667
 30
0.0
 11
-792.8411192747493
 21
475.9136529289667
 31
0.0
  0
LINE
  5
3938
330
1F
100
AcDbEntity
  8
0
370
    18
100
AcDbLine
 10
-788.887381067568
 20
471.5404112716192
 30
0.0
 11
-792.6827210093173
 21
471.5404112716192
 31
0.0
  0
LINE
  5
3939
330
1F
100
AcDbEntity
  8
0
370
    18
100
AcDbLine
 10
-793.833701501679
 20
472.2092856273753
 30
0.0
 11
-790.0383615599288
 21
472.2092856273753
 31
0.0
  0
LINE
  5
393A
330
1F
100
AcDbEntity
  8
0
370
    18
100
AcDbLine
 10
-793.3962036144706
 20
470.5212360657865
 30
0.0
 11
-793.1231164411213
 21
471.5404112716192
 31
0.0
  0
LINE
  5
393B
330
1F
100
AcDbEntity
  8
0
370
    18
100
AcDbLine
 10
-793.3962036144706
 20
470.5212360657865
 30
0.0
 11
-795.8992576818749
 21
470.5212360657865
 31
0.0
  0
LINE
  5
393C
330
1F
100
AcDbEntity
  8
0
370
    18
100
AcDbLine
 10
-797.2588808733929
 20
475.9136529289667
 30
0.0
 11
-797.911533231529
 21
473.4779211687232
 31
0.0
  0
LINE
  5
393D
330
1F
100
AcDbEntity
  8
0
370
    18
100
AcDbLine
 10
-795.8246851390217
 20
475.9136529289667
 30
0.0
 11
-797.2588808733929
 21
475.9136529289667
 31
0.0
  0
LINE
  5
393E
330
1F
100
AcDbEntity
  8
0
370
    18
100
AcDbLine
 10
-794.1935958526886
 20
473.0408761792436
 30
0.0
 11
-793.4238376425659
 21
475.9136529289667
 31
0.0
  0
LINE
  5
393F
330
1F
100
AcDbEntity
  8
0
370
    18
100
AcDbLine
 10
-793.4238376425659
 20
475.9136529289667
 30
0.0
 11
-794.8888540417214
 21
475.9136529289667
 31
0.0
  0
LINE
  5
3940
330
1F
100
AcDbEntity
  8
0
370
    18
100
AcDbLine
 10
-795.6201779019623
 20
473.1843151257613
 30
0.0
 11
-794.8888540417214
 21
475.9136529289667
 31
0.0
  0
ARC
  5
3941
330
1F
100
AcDbEntity
  8
0
370
    18
100
AcDbCircle
 10
-795.9535709591058
 20
473.2736475261849
 30
0.0
 40
0.3451538907744731
100
AcDbArc
 50
270.0
 51
345.0000000000055
  0
LINE
  5
3942
330
1F
100
AcDbEntity
  8
0
370
    18
100
AcDbLine
 10
-795.9535709591058
 20
472.9284936354101
 30
0.0
 11
-796.1747428530165
 21
472.9284936354101
 31
0.0
  0
ARC
  5
3943
330
1F
100
AcDbEntity
  8
0
370
    18
100
AcDbCircle
 10
-796.1747428530165
 20
473.2736475261849
 30
0.0
 40
0.3451538907744731
100
AcDbArc
 50
165.0000000000055
 51
270.0
  0
LINE
  5
3944
330
1F
100
AcDbEntity
  8
0
370
    18
100
AcDbLine
 10
-795.8246851390217
 20
475.9136529289667
 30
0.0
 11
-796.5081359101599
 21
473.3629799266086
 31
0.0
  0
LINE
  5
3945
330
1F
100
AcDbEntity
  8
0
370
    18
100
AcDbLine
 10
-793.1231164411213
 20
471.5404112716192
 30
0.0
 11
-796.9184563828725
 21
471.5404112716192
 31
0.0
  0
ARC
  5
3946
330
1F
100
AcDbEntity
  8
0
370
    18
100
AcDbCircle
 10
-796.0948888308152
 20
479.3255594920597
 30
0.0
 40
7.119253077153191
100
AcDbArc
 50
261.6882763531171
 51
278.5178280220953
  0
ARC
  5
3947
330
1F
100
AcDbEntity
  8
0
370
    18
100
AcDbCircle
 10
-795.193775024119
 20
473.3088733805147
 30
0.0
 40
1.035461672323419
100
AcDbArc
 50
278.5178280220953
 51
345.0000000000055
  0
LINE
  5
3948
330
1F
100
AcDbEntity
  8
0
370
    18
100
AcDbLine
 10
-792.8411192747493
 20
475.9136529289667
 30
0.0
 11
-793.833701501679
 21
472.2092856273753
 31
0.0
  0
LINE
  5
3949
330
1F
100
AcDbEntity
  8
0
370
    18
100
AcDbLine
 10
-789.1604682409164
 20
470.5212360657865
 30
0.0
 11
-788.887381067568
 21
471.5404112716192
 31
0.0
  0
LINE
  5
394A
330
1F
100
AcDbEntity
  8
0
370
    18
100
AcDbLine
 10
-789.1604682409164
 20
470.5212360657865
 30
0.0
 11
-791.6635223083207
 21
470.5212360657865
 31
0.0
  0
LINE
  5
394B
330
1F
100
AcDbEntity
  8
0
370
    18
100
AcDbLine
 10
-789.4429135810972
 20
474.4315277376386
 30
0.0
 11
-791.9356916811352
 21
474.4315277376386
 31
0.0
  0
LINE
  5
394C
330
1F
100
AcDbEntity
  8
0
370
    18
100
AcDbLine
 10
-789.3188665063484
 20
474.894477723134
 30
0.0
 11
-791.8219205737518
 21
474.894477723134
 31
0.0
  0
LINE
  5
394D
330
1F
100
AcDbEntity
  8
0
370
    18
100
AcDbLine
 10
-792.1340857360458
 20
473.6911110447931
 30
0.0
 11
-789.641307636008
 21
473.6911110447931
 31
0.0
  0
LINE
  5
394E
330
1F
100
AcDbEntity
  8
0
370
    18
100
AcDbLine
 10
-791.8116446063862
 20
474.894477723134
 30
0.0
 11
-791.9356916811352
 21
474.4315277376386
 31
0.0
  0
LINE
  5
394F
330
1F
100
AcDbEntity
  8
0
370
    18
100
AcDbLine
 10
-789.3188665063484
 20
474.894477723134
 30
0.0
 11
-789.0457793329991
 21
475.9136529289667
 31
0.0
  0
LINE
  5
3950
330
1F
100
AcDbEntity
  8
0
370
    18
100
AcDbLine
 10
-789.641307636008
 20
473.6911110447931
 30
0.0
 11
-789.4429135810972
 21
474.4315277376386
 31
0.0
  0
LINE
  5
3951
330
1F
100
AcDbEntity
  8
0
370
    18
100
AcDbLine
 10
-787.6847354470586
 20
474.1329763464769
 30
0.0
 11
-787.4424835925796
 21
475.0370725756188
 31
0.0
  0
LINE
  5
3952
330
1F
100
AcDbEntity
  8
0
370
    18
100
AcDbLine
 10
-789.5027486634411
 20
472.2092856273753
 30
0.0
 11
-788.2001868217288
 21
472.2092856273753
 31
0.0
  0
LINE
  5
3953
330
1F
100
AcDbEntity
  8
0
370
    18
100
AcDbLine
 10
-790.0383615599288
 20
472.2092856273753
 30
0.0
 11
-789.7656192596272
 21
473.2271737494734
 31
0.0
  0
LINE
  5
3954
330
1F
100
AcDbEntity
  8
0
370
    18
100
AcDbLine
 10
-788.5101664365123
 20
475.9136529289667
 30
0.0
 11
-789.5027486634411
 21
472.2092856273753
 31
0.0
  0
LINE
  5
3955
330
1F
100
AcDbEntity
  8
0
370
    18
100
AcDbLine
 10
-787.7758958880252
 20
473.7927609491484
 30
0.0
 11
-788.2001868217288
 21
472.2092856273753
 31
0.0
  0
LINE
  5
3956
330
1F
100
AcDbEntity
  8
0
370
    18
100
AcDbLine
 10
-787.7758958880252
 20
473.7927609491484
 30
0.0
 11
-786.772367592753
 21
472.2092856273753
 31
0.0
  0
LINE
  5
3957
330
1F
100
AcDbEntity
  8
0
370
    18
100
AcDbLine
 10
-786.5183676728888
 20
474.1329763464769
 30
0.0
 11
-787.6847354470586
 21
474.1329763464769
 31
0.0
  0
LINE
  5
3958
330
1F
100
AcDbEntity
  8
0
370
    18
100
AcDbLine
 10
-774.7876029627809
 20
467.8360439700277
 30
0.0
 11
-776.6144847600693
 21
467.8360439700277
 31
0.0
  0
LINE
  5
3959
330
1F
100
AcDbEntity
  8
0
370
    18
100
AcDbLine
 10
-775.8467378317958
 20
469.7229214985413
 30
0.0
 11
-774.282015652799
 21
469.7229214985413
 31
0.0
  0
ARC
  5
395A
330
1F
100
AcDbEntity
  8
0
370
    18
100
AcDbCircle
 10
-775.5600514079428
 20
461.7318305658513
 30
0.0
 40
8.85764661435673
100
AcDbArc
 50
80.02650671627761
 51
93.02614479233053
  0
ARC
  5
395B
330
1F
100
AcDbEntity
  8
0
370
    18
100
AcDbCircle
 10
-775.3954988934968
 20
457.0733151868194
 30
0.0
 40
14.46807838019826
100
AcDbArc
 50
83.51735091136804
 51
95.9233444042366
  0
LINE
  5
395C
330
1F
100
AcDbEntity
  8
0
370
    18
100
AcDbLine
 10
-778.89667366643
 20
467.8360439700277
 30
0.0
 11
-777.9040914395003
 21
471.5404112716192
 31
0.0
  0
LINE
  5
395D
330
1F
100
AcDbEntity
  8
0
370
    18
100
AcDbLine
 10
-779.6889522301584
 20
469.7882520400876
 30
0.0
 11
-779.2194625790584
 21
471.5404112716192
 31
0.0
  0
LINE
  5
395E
330
1F
100
AcDbEntity
  8
0
370
    18
100
AcDbLine
 10
-780.3985422449072
 20
471.5404112716192
 30
0.0
 11
-779.6889522301584
 21
469.7882520400876
 31
0.0
  0
ARC
  5
395F
330
1F
100
AcDbEntity
  8
0
370
    18
100
AcDbCircle
 10
-770.0819813590945
 20
467.716649300933
 30
0.0
 40
8.224997010073714
100
AcDbArc
 50
157.387404400783
 51
171.0200151799472
  0
LINE
  5
3960
330
1F
100
AcDbEntity
  8
0
370
    18
100
AcDbLine
 10
-783.4638697900594
 20
471.5404112716192
 30
0.0
 11
-784.4564520169891
 21
467.8360439700277
 31
0.0
  0
LINE
  5
3961
330
1F
100
AcDbEntity
  8
0
370
    18
100
AcDbLine
 10
-782.1216046592702
 20
471.5404112716192
 30
0.0
 11
-783.1141868862
 21
467.8360439700277
 31
0.0
  0
LINE
  5
3962
330
1F
100
AcDbEntity
  8
0
370
    18
100
AcDbLine
 10
-781.6597280921727
 20
471.5404112716192
 30
0.0
 11
-782.6523103191033
 21
467.8360439700277
 31
0.0
  0
LINE
  5
3963
330
1F
100
AcDbEntity
  8
0
370
    18
100
AcDbLine
 10
-784.3344101676497
 20
470.0547865349267
 30
0.0
 11
-784.2182614385441
 21
470.4882594931818
 31
0.0
  0
ARC
  5
3964
330
1F
100
AcDbEntity
  8
0
370
    18
100
AcDbCircle
 10
-786.3493051697308
 20
470.3128602420378
 30
0.0
 40
0.5483274067590241
100
AcDbArc
 50
296.5093598874471
 51
350.9662004601285
  0
ARC
  5
3965
330
1F
100
AcDbEntity
  8
0
370
    18
100
AcDbCircle
 10
-770.6579471568232
 20
467.9683917597181
 30
0.0
 40
6.22149298766157
100
AcDbArc
 50
158.0969939507809
 51
170.485613640356
  0
LINE
  5
3966
330
1F
100
AcDbEntity
  8
0
370
    18
100
AcDbLine
 10
-780.1707184067358
 20
467.8360439700277
 30
0.0
 11
-780.8778537131851
 21
469.5971792058685
 31
0.0
  0
LINE
  5
3967
330
1F
100
AcDbEntity
  8
0
370
    18
100
AcDbLine
 10
-785.9297891253385
 20
469.4294451140699
 30
0.0
 11
-784.9262608300654
 21
467.8459697922967
 31
0.0
  0
LINE
  5
3968
330
1F
100
AcDbEntity
  8
0
370
    18
100
AcDbLine
 10
-785.1493709739992
 20
469.4294451140699
 30
0.0
 11
-785.9297891253385
 21
469.4294451140699
 31
0.0
  0
ARC
  5
3969
330
1F
100
AcDbEntity
  8
0
370
    18
100
AcDbCircle
 10
-786.3837487965932
 20
470.5378758767688
 30
0.0
 40
0.7682193793950698
100
AcDbArc
 50
270.1852188608381
 51
291.3103783431897
  0
LINE
  5
396A
330
1F
100
AcDbEntity
  8
0
370
    18
100
AcDbLine
 10
-784.4564520169891
 20
467.8360439700277
 30
0.0
 11
-783.1141868862
 21
467.8360439700277
 31
0.0
  0
ARC
  5
396B
330
1F
100
AcDbEntity
  8
0
370
    18
100
AcDbCircle
 10
-785.1493709739992
 20
470.2731546248519
 30
0.0
 40
0.8437095107820451
100
AcDbArc
 50
270.0
 51
345.0438139040654
  0
LINE
  5
396C
330
1F
100
AcDbEntity
  8
0
370
    18
100
AcDbLine
 10
-782.6523103191033
 20
467.8360439700277
 30
0.0
 11
-781.349748477391
 21
467.8360439700277
 31
0.0
  0
LINE
  5
396D
330
1F
100
AcDbEntity
  8
0
370
    18
100
AcDbLine
 10
-780.8778537131851
 20
469.5971792058685
 30
0.0
 11
-781.349748477391
 21
467.8360439700277
 31
0.0
  0
LINE
  5
396E
330
1F
100
AcDbEntity
  8
0
370
    18
100
AcDbLine
 10
-780.1707184067358
 20
467.8360439700277
 30
0.0
 11
-778.89667366643
 21
467.8360439700277
 31
0.0
  0
ARC
  5
396F
330
1F
100
AcDbEntity
  8
0
370
    18
100
AcDbCircle
 10
-777.2591547790137
 20
468.8508319356965
 30
0.0
 40
0.9587608077068694
100
AcDbArc
 50
171.0200151799472
 51
262.0635437036931
  0
ARC
  5
3970
330
1F
100
AcDbEntity
  8
0
370
    18
100
AcDbCircle
 10
-776.4085462756387
 20
474.9523178347121
 30
0.0
 40
7.119253077153191
100
AcDbArc
 50
262.0635437036931
 51
268.3423749580197
  0
ARC
  5
3971
330
1F
100
AcDbEntity
  8
0
370
    18
100
AcDbCircle
 10
-775.6128969656423
 20
468.9865569392755
 30
0.0
 40
1.150512969248243
100
AcDbArc
 50
270.0
 51
270.0
  0
ARC
  5
3972
330
1F
100
AcDbEntity
  8
0
370
    18
100
AcDbCircle
 10
-777.2399829271257
 20
469.4340435392237
 30
0.0
 40
1.422878199650913
100
AcDbArc
 50
334.2263645027579
 51
11.71383119334169
  0
ARC
  5
3973
330
1F
100
AcDbEntity
  8
0
370
    18
100
AcDbCircle
 10
-776.3730776405504
 20
469.0154571657617
 30
0.0
 40
0.4602051876992975
100
AcDbArc
 50
270.0
 51
334.2263645027579
  0
LINE
  5
3974
330
1F
100
AcDbEntity
  8
0
370
    18
100
AcDbLine
 10
-776.4147678623862
 20
468.5552519780626
 30
0.0
 11
-776.3730776405504
 21
468.5552519780626
 31
0.0
  0
ARC
  5
3975
330
1F
100
AcDbEntity
  8
0
370
    18
100
AcDbCircle
 10
-776.4147678623862
 20
468.9387563011455
 30
0.0
 40
0.3835043230827479
100
AcDbArc
 50
171.2985646492444
 51
270.0
  0
LINE
  5
3976
330
1F
100
AcDbEntity
  8
0
370
    18
100
AcDbLine
 10
-780.3985422449072
 20
471.5404112716192
 30
0.0
 11
-781.6597280921727
 21
471.5404112716192
 31
0.0
  0
ARC
  5
3977
330
1F
100
AcDbEntity
  8
0
370
    18
100
AcDbCircle
 10
-786.1893215539596
 20
470.2874245735925
 30
0.0
 40
0.386334411403646
100
AcDbArc
 50
350.9662004601285
 51
90.19530426564624
  0
ARC
  5
3978
330
1F
100
AcDbEntity
  8
0
370
    18
100
AcDbCircle
 10
-785.0332222448945
 20
470.7066275831062
 30
0.0
 40
0.8437095107820451
100
AcDbArc
 50
344.9999529879158
 51
90.0
  0
LINE
  5
3979
330
1F
100
AcDbEntity
  8
0
370
    18
100
AcDbLine
 10
-785.2864732497814
 20
473.7927609491484
 30
0.0
 11
-786.0668914011197
 21
473.7927609491484
 31
0.0
  0
ARC
  5
397A
330
1F
100
AcDbEntity
  8
0
370
    18
100
AcDbCircle
 10
-786.3264238297419
 20
474.650740408671
 30
0.0
 40
0.386334411403646
100
AcDbArc
 50
350.9662004601285
 51
90.19530426564624
  0
ARC
  5
397B
330
1F
100
AcDbEntity
  8
0
370
    18
100
AcDbCircle
 10
-786.4864074455121
 20
474.6761760771155
 30
0.0
 40
0.5483274067590241
100
AcDbArc
 50
296.5093598874471
 51
350.9662004601285
  0
ARC
  5
397C
330
1F
100
AcDbEntity
  8
0
370
    18
100
AcDbCircle
 10
-785.2864732497814
 20
474.6364704599296
 30
0.0
 40
0.8437095107820451
100
AcDbArc
 50
270.0
 51
345.0438139040654
  0
LINE
  5
397D
330
1F
100
AcDbEntity
  8
0
370
    18
100
AcDbLine
 10
-784.4715124434309
 20
474.4181023700052
 30
0.0
 11
-784.3553637143262
 21
474.8515753282595
 31
0.0
  0
ARC
  5
397E
330
1F
100
AcDbEntity
  8
0
370
    18
100
AcDbCircle
 10
-785.1703245206756
 20
475.0699434181846
 30
0.0
 40
0.8437095107820451
100
AcDbArc
 50
344.9999529879158
 51
90.0
  0
LINE
  5
397F
330
1F
100
AcDbEntity
  8
0
370
    18
100
AcDbLine
 10
-782.1216046592702
 20
471.5404112716192
 30
0.0
 11
-783.4638697900594
 21
471.5404112716192
 31
0.0
  0
LINE
  5
3980
330
1F
100
AcDbEntity
  8
0
370
    18
100
AcDbLine
 10
-786.0668914011197
 20
473.7927609491484
 30
0.0
 11
-785.0633631058475
 21
472.2092856273753
 31
0.0
  0
ARC
  5
3981
330
1F
100
AcDbEntity
  8
0
370
    18
100
AcDbCircle
 10
-776.003366096925
 20
470.117562173807
 30
0.0
 40
0.4602051876992975
100
AcDbArc
 50
93.02614479233053
 51
158.0969939507809
  0
LINE
  5
3982
330
1F
100
AcDbEntity
  8
0
370
    18
100
AcDbLine
 10
-777.9040914395003
 20
471.5404112716192
 30
0.0
 11
-779.2194625790584
 21
471.5404112716192
 31
0.0
  0
ARC
  5
3983
330
1F
100
AcDbEntity
  8
0
370
    18
100
AcDbCircle
 10
-776.7896308369003
 20
470.5105045282993
 30
0.0
 40
0.9587608077068694
100
AcDbArc
 50
95.9233444042366
 51
157.387404400783
  0
LINE
  5
3984
330
1F
100
AcDbEntity
  8
0
370
    18
100
AcDbLine
 10
-774.7876029627809
 20
467.8360439700277
 30
0.0
 11
-774.282015652799
 21
469.7229214985413
 31
0.0
  0
LINE
  5
3985
330
1F
100
AcDbEntity
  8
0
370
    18
100
AcDbLine
 10
-774.025972932863
 20
470.4556202685621
 30
0.0
 11
-773.7620192105991
 21
471.4488859977859
 31
0.0
  0
LINE
  5
3986
330
1F
100
AcDbEntity
  8
0
  6
STRICHPUNKT
 62
     7
 48
3.0
370
    18
100
AcDbLine
 10
-795.0074957750456
 20
462.5247727547098
 30
0.0
 11
-795.0074957750456
 21
296.0657393551501
 31
0.0
  0
VIEWPORT
  5
3594
330
1B
100
AcDbEntity
 67
     1
  8
0
100
AcDbViewport
 10
202.63000528198
 20
130.4873709594329
 30
0.0
 40
549.6862986796644
 41
311.9527728793877
 68
     1
 69
     1
 12
202.63000528198
 22
130.4873709594329
 13
0.0
 23
0.0
 14
10.0
 24
10.0
 15
10.0
 25
10.0
 16
0.0
 26
0.0
 36
1.0
 17
0.0
 27
0.0
 37
0.0
 42
50.0
 43
0.0
 44
0.0
 45
311.9527728793877
 50
0.0
 51
0.0
 72
   100
 90
    32800
  1

281
     0
 71
     1
 74
     0
110
0.0
120
0.0
130
0.0
111
1.0
121
0.0
131
0.0
112
0.0
122
1.0
132
0.0
 79
     0
146
0.0
  0
VIEWPORT
  5
3596
330
1B
100
AcDbEntity
 67
     1
  8
Defpoints
100
AcDbViewport
 10
208.9176200695014
 20
133.7018643394071
 30
0.0
 40
387.5495742846081
 41
268.1865223506994
 68
     2
 69
     2
 12
-641.0471740385454
 22
235.240832277804
 13
0.0
 23
0.0
 14
10.0
 24
10.0
 15
10.0
 25
10.0
 16
0.0
 26
0.0
 36
1.0
 17
0.0
 27
0.0
 37
0.0
 42
50.0
 43
0.0
 44
0.0
 45
562.4080453159241
 50
0.0
 51
0.0
 72
   100
 90
    32864
  1

281
     0
 71
     1
 74
     0
110
-1010.531685233663
120
-1223.353452448566
130
0.0
111
1.0
121
0.0
131
0.0
112
0.0
122
1.0
132
0.0
 79
     0
146
0.0
  0
LINE
  5
36BA
330
1B
100
AcDbEntity
 67
     1
  8
RAHMEN025
100
AcDbLine
 10
412.6226261514199
 20
276.2134044108346
 30
0.0
 11
-7.377373848580077
 21
276.2134044108346
 31
0.0
  0
LINE
  5
36BB
330
1B
100
AcDbEntity
 67
     1
  8
RAHMEN07
100
AcDbLine
 10
407.6226261514199
 20
271.2134044108347
 30
0.0
 11
10.42262615142021
 21
271.2134044108347
 31
0.0
  0
LINE
  5
36BC
330
1B
100
AcDbEntity
 67
     1
  8
RAHMEN07
100
AcDbLine
 10
407.6226261514199
 20
-15.78659558916524
 30
0.0
 11
407.6226261514199
 21
271.2134044108347
 31
0.0
  0
LINE
  5
36BD
330
1B
100
AcDbEntity
 67
     1
  8
RAHMEN025
100
AcDbLine
 10
412.6226261514199
 20
-20.78659558916524
 30
0.0
 11
412.6226261514199
 21
276.2134044108346
 31
0.0
  0
TEXT
  5
36BE
330
1B
100
AcDbEntity
 67
     1
  8
RAHMEN025
100
AcDbText
 10
319.9881306634012
 20
26.89887475096293
 30
0.0
 40
2.5
  1
Werkstoff:
  7
ISO Proportional
100
AcDbText
  0
TEXT
  5
36BF
330
1B
100
AcDbEntity
 67
     1
  8
RAHMEN025
100
AcDbText
 10
320.8993261954128
 20
-14.91159558916524
 30
0.0
 40
2.5
  1
Ersatz für:
  7
ISO Proportional
100
AcDbText
  0
TEXT
  5
36C0
330
1B
100
AcDbEntity
 67
     1
  8
RAHMEN025
100
AcDbText
 10
320.0387077096663
 20
17.88922234510698
 30
0.0
 40
2.5
  1
Benennung:
  7
ISO Proportional
100
AcDbText
  0
LINE
  5
36C1
330
1B
100
AcDbEntity
 67
     1
  8
RAHMEN07
100
AcDbLine
 10
220.4226261514202
 20
-15.78659558916524
 30
0.0
 11
407.6226261514199
 21
-15.78659558916524
 31
0.0
  0
LINE
  5
36C2
330
1B
100
AcDbEntity
 67
     1
  8
RAHMEN07
100
AcDbLine
 10
220.4226261514202
 20
22.46340441083469
 30
0.0
 11
407.6226261514202
 21
22.46340441083469
 31
0.0
  0
LINE
  5
36C3
330
1B
100
AcDbEntity
 67
     1
  8
RAHMEN07
100
AcDbLine
 10
220.4226261514202
 20
1.213404410834755
 30
0.0
 11
407.6226261514199
 21
1.213404410834755
 31
0.0
  0
LINE
  5
36C4
330
1B
100
AcDbEntity
 67
     1
  8
RAHMEN07
100
AcDbLine
 10
220.4226261514202
 20
39.46340441083475
 30
0.0
 11
407.6226261514202
 21
39.46340441083475
 31
0.0
  0
LINE
  5
36C5
330
1B
100
AcDbEntity
 67
     1
  8
RAHMEN025
100
AcDbLine
 10
220.4226261514202
 20
-11.53659558916524
 30
0.0
 11
407.6226261514199
 21
-11.53659558916524
 31
0.0
  0
LINE
  5
36C6
330
1B
100
AcDbEntity
 67
     1
  8
RAHMEN025
100
AcDbLine
 10
319.2226261514202
 20
33.08840441083475
 30
0.0
 11
407.6226261514202
 21
33.08840441083475
 31
0.0
  0
TEXT
  5
36C7
330
1B
100
AcDbEntity
 67
     1
  8
RAHMEN025
100
AcDbText
 10
302.4687243045763
 20
35.02590441083475
 30
0.0
 40
2.5
  1
Oberfl.
  7
ISO Proportional
100
AcDbText
  0
TEXT
  5
36C8
330
1B
100
AcDbEntity
 67
     1
  8
RAHMEN025
100
AcDbText
 10
320.3488860539117
 20
35.02590441083475
 30
0.0
 40
2.5
  1
Maßstab:
  7
ISO Proportional
100
AcDbText
  0
TEXT
  5
36C9
330
1B
100
AcDbEntity
 67
     1
  8
RAHMEN025
100
AcDbText
 10
276.626292106527
 20
35.02590441083475
 30
0.0
 40
2.5
  1
Zul. Abw.
  7
ISO Proportional
100
AcDbText
  0
TEXT
  5
36CA
330
1B
100
AcDbEntity
 67
     1
  8
RAHMEN025
100
AcDbText
 10
222.026292106527
 20
35.02590441083475
 30
0.0
 40
2.5
  1
Verwendungsbereich
  7
ISO Proportional
100
AcDbText
  0
LINE
  5
36CB
330
1B
100
AcDbEntity
 67
     1
  8
RAHMEN07
100
AcDbLine
 10
220.4226261514202
 20
39.46340441083475
 30
0.0
 11
220.4226261514202
 21
-15.78659558916524
 31
0.0
  0
LINE
  5
36CC
330
1B
100
AcDbEntity
 67
     1
  8
RAHMEN025
100
AcDbLine
 10
275.0226261514201
 20
39.46340441083475
 30
0.0
 11
275.0226261514201
 21
-15.78659558916524
 31
0.0
  0
LINE
  5
36CD
330
1B
100
AcDbEntity
 67
     1
  8
RAHMEN025
100
AcDbLine
 10
319.2226261514202
 20
39.46340441083475
 30
0.0
 11
319.2226261514201
 21
-15.78659558916524
 31
0.0
  0
LINE
  5
36CE
330
1B
100
AcDbEntity
 67
     1
  8
RAHMEN025
100
AcDbLine
 10
301.0226261514203
 20
39.46340441083475
 30
0.0
 11
301.0226261514201
 21
1.213404410834755
 31
0.0
  0
TEXT
  5
36CF
330
1B
100
AcDbEntity
 67
     1
  8
RAHMEN025
100
AcDbText
 10
267.2976579999023
 20
-14.91159558916524
 30
0.0
 40
2.5
  1
Name
  7
ISO Proportional
100
AcDbText
  0
LINE
  5
36D0
330
1B
100
AcDbEntity
 67
     1
  8
RAHMEN025
100
AcDbLine
 10
220.4226261514202
 20
-3.036595589165244
 30
0.0
 11
275.0226261514201
 21
-3.036595589165244
 31
0.0
  0
LINE
  5
36D1
330
1B
100
AcDbEntity
 67
     1
  8
RAHMEN025
100
AcDbLine
 10
220.4226261514202
 20
-7.286595589165244
 30
0.0
 11
275.0226261514201
 21
-7.286595589165244
 31
0.0
  0
LINE
  5
36D2
330
1B
100
AcDbEntity
 67
     1
  8
RAHMEN025
100
AcDbLine
 10
220.4226261514202
 20
5.463404410834755
 30
0.0
 11
319.2226261514201
 21
5.463404410834755
 31
0.0
  0
LINE
  5
36D3
330
1B
100
AcDbEntity
 67
     1
  8
RAHMEN025
100
AcDbLine
 10
220.4226261514202
 20
9.713404410834755
 30
0.0
 11
319.2226261514201
 21
9.713404410834755
 31
0.0
  0
LINE
  5
36D4
330
1B
100
AcDbEntity
 67
     1
  8
RAHMEN025
100
AcDbLine
 10
220.4226261514202
 20
13.96340441083475
 30
0.0
 11
319.2226261514201
 21
13.96340441083475
 31
0.0
  0
LINE
  5
36D5
330
1B
100
AcDbEntity
 67
     1
  8
RAHMEN025
100
AcDbLine
 10
220.4226261514202
 20
18.21340441083475
 30
0.0
 11
319.2226261514201
 21
18.21340441083475
 31
0.0
  0
LINE
  5
36D6
330
1B
100
AcDbEntity
 67
     1
  8
RAHMEN025
100
AcDbLine
 10
228.2226261514201
 20
22.46340441083475
 30
0.0
 11
228.2226261514201
 21
-15.78659558916524
 31
0.0
  0
LINE
  5
36D7
330
1B
100
AcDbEntity
 67
     1
  8
RAHMEN025
100
AcDbLine
 10
254.2226261514202
 20
22.46340441083475
 30
0.0
 11
254.2226261514202
 21
-15.78659558916524
 31
0.0
  0
LINE
  5
36D8
330
1B
100
AcDbEntity
 67
     1
  8
RAHMEN025
100
AcDbLine
 10
267.2226261514202
 20
22.46340441083475
 30
0.0
 11
267.2226261514202
 21
-15.78659558916524
 31
0.0
  0
TEXT
  5
36D9
330
1B
100
AcDbEntity
 67
     1
  8
RAHMEN025
100
AcDbText
 10
233.808065191836
 20
-14.91159558916524
 30
0.0
 40
2.5
  1
Änderung
  7
ISO Proportional
100
AcDbText
  0
TEXT
  5
36DA
330
1B
100
AcDbEntity
 67
     1
  8
RAHMEN025
100
AcDbText
 10
221.2094273001421
 20
-14.91159558916524
 30
0.0
 40
2.5
  1
Index
 41
0.8
  7
ISO Proportional
100
AcDbText
  0
TEXT
  5
36DB
330
1B
100
AcDbEntity
 67
     1
  8
RAHMEN025
100
AcDbText
 10
256.0342547321445
 20
-14.91159558916524
 30
0.0
 40
2.5
  1
Datum
  7
ISO Proportional
100
AcDbText
  0
LWPOLYLINE
  5
36DC
330
1B
100
AcDbEntity
 67
     1
  8
RAHMEN025
100
AcDbPolyline
 90
        4
 70
     1
 43
0.0
 10
275.0226261514201
 20
-11.53659558916525
 10
319.2226261514201
 20
-11.53659558916525
 10
319.2226261514201
 20
1.213404410834744
 10
275.0226261514201
 20
1.213404410834744
  0
TEXT
  5
36DD
330
1B
100
AcDbEntity
 67
     1
  8
RAHMEN025
 48
1.5
100
AcDbText
 10
272.0912886041227
 20
-19.81392652952951
 30
0.0
 40
2.5
  1
"Schutzvermerk DIN 34 beachten"
 41
0.8
  7
Stil1
100
AcDbText
  0
TEXT
  5
36DE
330
1B
100
AcDbEntity
 67
     1
  8
RAHMEN025
100
AcDbText
 10
276.2749386788138
 20
-14.91159558916524
 30
0.0
 40
2.5
  1
Ursprung
  7
ISO Proportional
100
AcDbText
  0
LINE
  5
36DF
330
1B
100
AcDbEntity
 67
     1
  8
RAHMEN025
370
     9
100
AcDbLine
 10
298.6616429569492
 20
-3.366202487817588
 30
0.0
 11
302.4569828986992
 21
-3.366202487817588
 31
0.0
  0
LINE
  5
36E0
330
1B
100
AcDbEntity
 67
     1
  8
Defpoints
370
    13
100
AcDbLine
 10
303.2108291429628
 20
-5.517202034901742
 30
0.0
 11
300.7180510429247
 21
-5.517202034901742
 31
0.0
  0
LINE
  5
36E1
330
1B
100
AcDbEntity
 67
     1
  8
Defpoints
370
    13
100
AcDbLine
 10
303.3348762177122
 20
-5.054252049406102
 30
0.0
 11
300.831822150308
 21
-5.054252049406102
 31
0.0
  0
LINE
  5
36E2
330
1B
100
AcDbEntity
 67
     1
  8
Defpoints
370
    13
100
AcDbLine
 10
300.5196569880142
 20
-6.257618727747058
 30
0.0
 11
303.012435088052
 21
-6.257618727747058
 31
0.0
  0
LINE
  5
36E3
330
1B
100
AcDbEntity
 67
     1
  8
Defpoints
370
    13
100
AcDbLine
 10
303.6079633910607
 20
-4.035076843573847
 30
0.0
 11
299.8126234493107
 21
-4.035076843573847
 31
0.0
  0
LINE
  5
36E4
330
1B
100
AcDbEntity
 67
     1
  8
RAHMEN025
370
     9
100
AcDbLine
 10
303.0524308775312
 20
-1.143960377554094
 30
0.0
 11
300.5596527774933
 21
-1.143960377554094
 31
0.0
  0
LINE
  5
36E5
330
1B
100
AcDbEntity
 67
     1
  8
RAHMEN025
370
     9
100
AcDbLine
 10
303.1764779522803
 20
-0.681010392058397
 30
0.0
 11
300.6734238848763
 21
-0.681010392058397
 31
0.0
  0
LINE
  5
36E6
330
1B
100
AcDbEntity
 67
     1
  8
RAHMEN025
370
     9
100
AcDbLine
 10
303.4495651256293
 20
0.3381648137738011
 30
0.0
 11
299.6542251838788
 21
0.3381648137738011
 31
0.0
  0
LINE
  5
36E7
330
1B
100
AcDbEntity
 67
     1
  8
RAHMEN025
370
     9
100
AcDbLine
 10
300.236947098963
 20
-2.348314365719602
 30
0.0
 11
302.7400011663672
 21
-2.348314365719602
 31
0.0
  0
LINE
  5
36E8
330
1B
100
AcDbEntity
 67
     1
  8
RAHMEN025
370
     9
100
AcDbLine
 10
300.3612587225827
 20
-1.884377070399125
 30
0.0
 11
302.8540368226207
 21
-1.884377070399125
 31
0.0
  0
LINE
  5
36E9
330
1B
100
AcDbEntity
 67
     1
  8
Defpoints
370
    13
100
AcDbLine
 10
298.8200412223806
 20
-7.73944414516518
 30
0.0
 11
302.6153811641311
 21
-7.73944414516518
 31
0.0
  0
LINE
  5
36EA
330
1B
100
AcDbEntity
 67
     1
  8
Defpoints
370
    13
100
AcDbLine
 10
300.3953453643946
 20
-6.721556023067307
 30
0.0
 11
302.898399431799
 21
-6.721556023067307
 31
0.0
  0
HATCH
  5
36EB
330
1B
100
AcDbEntity
 67
     1
  8
RAHMEN025
370
    13
100
AcDbHatch
 10
0.0
 20
0.0
 30
0.0
210
0.0
220
0.0
230
1.0
  2
ANSI31
 70
     0
 71
     0
 91
       12
 92
        7
 72
     0
 73
     1
 93
       12
 10
277.5431210508443
 20
-6.257618727747068
 10
280.0358991508822
 20
-6.257618727747068
 10
280.2342932057921
 20
-5.517202034901767
 10
277.7415151057543
 20
-5.517202034901767
 10
277.865562180504
 20
-5.054252049406112
 10
280.3583402805418
 20
-5.054252049406109
 10
280.6314274538903
 20
-4.035076843573829
 10
276.8360875121402
 20
-4.035076843573829
 10
275.8435052852101
 20
-7.739444145165187
 10
279.6388452269606
 20
-7.73944414516519
 10
279.9115875272624
 20
-6.721556023067289
 10
277.4188094272244
 20
-6.721556023067289
 97
        0
 92
        7
 72
     0
 73
     1
 93
       10
 10
282.4236191714063
 20
-4.035076843573829
 10
281.1624333241397
 20
-4.035076843573829
 10
280.1698510972098
 20
-7.73944414516519
 10
281.4724129389225
 20
-7.73944414516519
 10
281.9443077031283
 20
-5.978308909324034
 10
282.6514430095775
 20
-7.73944414516519
 10
283.9254877498829
 20
-7.73944414516519
 10
284.9180699768125
 20
-4.035076843573829
 10
283.6026988372545
 20
-4.035076843573829
 10
283.133209186155
 20
-5.787236075104971
 97
        0
 92
        7
 72
     1
 73
     1
 93
       16
 10
286.4443922958366
 20
-5.286252626641189
 42
-0.2918088509345686
 10
286.8470833611525
 20
-4.998362487166254
 42
-0.0567825308446797
 10
288.8487715109474
 20
-5.119867846630505
 42
0.0
 10
289.1127252332111
 20
-4.126602117406882
 42
0.0541842923752296
 10
285.9861715944112
 20
-4.111341743978194
 42
0.2748078422990356
 10
285.2000568523467
 20
-4.696341717869028
 42
0.0595537418813009
 10
284.6685804576234
 20
-6.575003755778439
 42
0.4195581459998819
 10
285.4832089945397
 20
-7.674233793247765
 42
0.0274034260658982
 10
286.2602596837616
 20
-7.73944414516519
 42
0.0
 10
288.0871414810298
 20
-7.73944414516519
 42
0.0
 10
288.5927287910115
 20
-5.852566616650943
 42
0.0
 10
287.0280066120144
 20
-5.852566616650943
 42
-0.1650444911529426
 10
286.9160902940736
 20
-6.760135884518248
 42
-0.2878146020947726
 10
286.501666803259
 20
-7.020236137130151
 42
0.0
 10
286.4599765814238
 20
-7.020236137130151
 42
-0.4686158958349675
 10
286.0828139888152
 20
-6.56727719173957
 42
-0.0536408936041017
 97
        0
 92
        7
 72
     0
 73
     1
 93
        4
 10
288.546166871507
 20
-7.73944414516519
 10
289.8884320022966
 20
-7.73944414516519
 10
290.8810142292261
 20
-4.035076843573829
 10
289.5387490984367
 20
-4.035076843573829
 97
        0
 92
        7
 72
     0
 73
     1
 93
       10
 10
292.1247651753116
 20
-5.978308909323985
 10
292.8319004817612
 20
-7.73944414516519
 10
294.1059452220665
 20
-7.73944414516519
 10
295.0985274489963
 20
-4.035076843573829
 10
293.7831563094383
 20
-4.035076843573829
 10
293.3136666583389
 20
-5.78723607510502
 10
292.60407664359
 20
-4.035076843573829
 10
291.3428907963233
 20
-4.035076843573829
 10
290.3503085693934
 20
-7.73944414516519
 10
291.6528704111058
 20
-7.73944414516519
 97
        0
 92
        7
 72
     0
 73
     1
 93
       12
 10
296.4823156693709
 20
-5.517202034901767
 10
296.6063627441201
 20
-5.054252049406112
 10
299.0991408441579
 20
-5.054252049406109
 10
299.3722280175066
 20
-4.035076843573829
 10
295.5768880757564
 20
-4.035076843573829
 10
294.5843058488266
 20
-7.73944414516519
 10
298.3796457905767
 20
-7.73944414516519
 10
298.6523880908783
 20
-6.721556023067289
 10
296.1596099908404
 20
-6.721556023067289
 10
296.2839216144602
 20
-6.257618727747068
 10
298.776699714498
 20
-6.257618727747068
 10
298.9750937694086
 20
-5.517202034901767
 97
        0
 92
        7
 72
     0
 73
     1
 93
       12
 10
300.7180510429248
 20
-5.517202034901767
 10
300.8420981176744
 20
-5.054252049406112
 10
303.3348762177122
 20
-5.054252049406112
 10
303.6079633910608
 20
-4.035076843573829
 10
299.8126234493107
 20
-4.035076843573829
 10
298.8200412223806
 20
-7.739444145165187
 10
302.6153811641311
 20
-7.73944414516519
 10
302.8881234644324
 20
-6.721556023067289
 10
300.3953453643946
 20
-6.721556023067289
 10
300.5196569880142
 20
-6.257618727747068
 10
303.012435088052
 20
-6.257618727747068
 10
303.2108291429628
 20
-5.517202034901767
 97
        0
 92
        7
 72
     1
 73
     1
 93
       11
 10
304.8565508463849
 20
-6.146043001123068
 42
0.0
 10
305.8600791416575
 20
-7.729518322895867
 42
0.0
 10
307.5690836285629
 20
-7.729518322895863
 42
0.0
 10
306.5655553332902
 20
-6.146043001123128
 42
0.0
 10
307.3459734846288
 20
-6.146043001123128
 42
0.3394542588634887
 10
308.160934290979
 20
-5.520701580265392
 42
0.0
 10
308.2770830200839
 20
-5.08722862201089
 42
0.4931454260311745
 10
307.4621222137337
 20
-4.025151021304676
 42
0.0
 10
304.1222802978984
 20
-4.025151021304676
 42
0.0
 10
303.1296980709687
 20
-7.729518322895867
 42
0.0
 10
304.4322599126812
 20
-7.729518322895867
 42
0.0
 97
        0
 92
       22
 72
     1
 73
     1
 93
        6
 10
304.9477112873516
 20
-5.805827603794512
 42
0.0
 10
305.1899631418302
 20
-4.901731374652666
 42
0.0
 10
306.3047060081418
 20
-4.901731374652666
 42
-0.462218980900382
 10
306.6875651799825
 20
-5.348724645962398
 42
-0.2421880062400708
 10
306.39078193935
 20
-5.753304936051687
 42
-0.0940682372986285
 10
306.1091122597193
 20
-5.805827603794522
 42
0.0
 97
        0
 92
        7
 72
     0
 73
     1
 93
        4
 10
310.3737397993582
 20
-4.035076843573829
 10
309.0314746685685
 20
-4.035076843573829
 10
308.0388924416392
 20
-7.73944414516519
 10
309.3811575724286
 20
-7.73944414516519
 97
        0
 92
        7
 72
     0
 73
     1
 93
       10
 10
311.6174907454429
 20
-5.978308909323576
 10
312.3246260518928
 20
-7.73944414516519
 10
313.5986707921986
 20
-7.73944414516519
 10
314.5912530191282
 20
-4.035076843573829
 10
313.2758818795699
 20
-4.035076843573829
 10
312.8063922284703
 20
-5.78723607510502
 10
312.0968022137215
 20
-4.035076843573829
 10
310.8356163664553
 20
-4.035076843573829
 10
309.8430341395252
 20
-7.73944414516519
 10
311.1455959812378
 20
-7.73944414516519
 97
        0
 92
        7
 72
     1
 73
     1
 93
       16
 10
316.064992310655
 20
-5.286252626641132
 42
-0.2918088509345139
 10
316.4676833759707
 20
-4.998362487166254
 42
-0.0567825308446765
 10
318.4693715257655
 20
-5.119867846630477
 42
0.0
 10
318.7333252480293
 20
-4.126602117406843
 42
0.0541842923752316
 10
315.6067716092294
 20
-4.111341743978243
 42
0.2748078422989353
 10
314.8206568671653
 20
-4.696341717869323
 42
0.0595537418812928
 10
314.289180472442
 20
-6.575003755778464
 42
0.4195581459999278
 10
315.1038090093585
 20
-7.674233793247836
 42
0.0274034260658874
 10
315.8808596985801
 20
-7.73944414516519
 42
0.0
 10
317.7077414958478
 20
-7.73944414516519
 42
0.0
 10
318.2133288058295
 20
-5.852566616650943
 42
0.0
 10
316.6486066268328
 20
-5.852566616650943
 42
-0.1650444911529743
 10
316.5366903088921
 20
-6.760135884518419
 42
-0.287814602094675
 10
316.1222668180776
 20
-7.020236137130151
 42
0.0
 10
316.0805765962419
 20
-7.020236137130151
 42
-0.4686158958349675
 10
315.7034140036333
 20
-6.56727719173957
 42
-0.0536408936041064
 97
        0
 75
     0
 76
     1
 52
0.0
 41
0.1
 77
     0
 78
     1
 53
45.0
 43
-1.729137045075617
 44
-90.28502224703143
 45
-0.2245064030267288
 46
0.2245064030267288
 79
     0
 47
0.0661482101908399
 98
       12
 10
277.3447632787669
 20
-5.833027187126514
 10
282.442265671334
 20
-5.634582379165532
 10
285.9509357353867
 20
-5.899175456446879
 10
289.72441194643
 20
-5.502285840524802
 10
292.5710696786254
 20
-5.634582379165532
 10
295.88113589134
 20
-5.502285840524802
 10
300.1842213607453
 20
-5.568434109845167
 10
304.6859121992981
 20
-5.568434109845167
 10
304.6859121992981
 20
-5.568434109845167
 10
309.3862068891889
 20
-5.568434109845167
 10
311.4384476982224
 20
-5.568434109845167
 10
315.8077369810896
 20
-5.30384103256382
  0
HATCH
  5
36EC
330
1B
100
AcDbEntity
 67
     1
  8
RAHMEN025
370
     9
100
AcDbHatch
 10
0.0
 20
0.0
 30
0.0
210
0.0
220
0.0
230
1.0
  2
SOLID
 70
     1
 71
     0
 91
        8
 92
        7
 72
     0
 73
     1
 93
       11
 10
283.7355336697661
 20
-3.366202487817599
 10
285.1352507383398
 20
-3.366202487817599
 10
284.4688349463895
 20
-1.562134366407541
 10
286.1278329652697
 20
0.3381648137738189
 10
284.5333466554248
 20
0.3381648137738189
 10
283.2372554639807
 20
-1.146442762915324
 10
283.6350548652319
 20
0.3381648137738189
 10
282.2927897344422
 20
0.3381648137738189
 10
281.3002075075123
 20
-3.366202487817599
 10
282.6424726383018
 20
-3.366202487817599
 10
283.1020113026555
 20
-1.6511808444086
 97
        0
 92
        7
 72
     0
 73
     1
 93
       10
 10
287.7751646399485
 20
0.3381648137738189
 10
286.5139787926819
 20
0.3381648137738189
 10
285.5213965657523
 20
-3.366202487817599
 10
286.8239584074647
 20
-3.366202487817599
 10
287.29585317167
 20
-1.605067251976361
 10
288.0029884781199
 20
-3.366202487817599
 10
289.2770332184253
 20
-3.366202487817599
 10
290.2696154453548
 20
0.3381648137738189
 10
288.9542443057969
 20
0.3381648137738189
 10
288.4847546546975
 20
-1.413994417757393
 97
        0
 92
        7
 72
     0
 73
     1
 93
        8
 10
289.5837884051682
 20
-3.366202487817599
 10
291.1817849206088
 20
-3.366202487817599
 10
291.4703170524049
 20
-2.837817145040315
 10
292.9737056598509
 20
-2.837817145040315
 10
293.0004117492178
 20
-3.366202487817599
 10
294.3042774943687
 20
-3.366202487817599
 10
294.1170482959117
 20
0.3381648137738189
 10
291.6066094563094
 20
0.3381648137738189
 97
        0
 92
       22
 72
     0
 73
     1
 93
        3
 10
292.846342834507
 20
-0.3179180612879406
 10
292.9330660729957
 20
-2.033754755529184
 10
291.909386452255
 20
-2.033754755529184
 97
        0
 92
        7
 72
     1
 73
     1
 93
       12
 10
296.6706593196065
 20
0.3381648137738189
 42
0.0
 10
295.236463585235
 20
0.3381648137738189
 42
0.0
 10
294.5838112270994
 20
-2.097566946469338
 42
0.4488320008137725
 10
295.3713058643066
 20
-3.294402708600816
 42
0.0735650496629369
 10
297.4549390599864
 20
-3.290655081945637
 42
0.2985033964043282
 10
298.3017486059397
 20
-2.53461193594898
 42
0.0
 10
299.0715068160625
 20
0.3381648137738189
 42
0.0
 10
297.606490416907
 20
0.3381648137738189
 42
0.0
 10
296.8751665566663
 20
-2.391172989431598
 42
-0.3394542588632696
 10
296.5417734995231
 20
-2.646994479782232
 42
0.0
 10
296.3206016056123
 20
-2.646994479782232
 42
-0.4931454260315976
 10
295.9872085484689
 20
-2.212508188584013
 42
0.0
 97
        0
 92
        7
 72
     0
 73
     1
 93
       12
 10
298.6616429569493
 20
-3.366202487817599
 10
302.4569828986992
 20
-3.366202487817599
 10
302.7297251990008
 20
-2.348314365719584
 10
300.236947098963
 20
-2.348314365719584
 10
300.3612587225827
 20
-1.884377070399136
 10
302.8540368226207
 20
-1.884377070399136
 10
303.0524308775312
 20
-1.143960377554105
 10
300.5596527774934
 20
-1.143960377554105
 10
300.6836998522424
 20
-0.6810103920584077
 10
303.1764779522803
 20
-0.6810103920584077
 10
303.4495651256292
 20
0.3381648137738189
 10
299.6542251838788
 20
0.3381648137738189
 97
        0
 92
        7
 72
     1
 73
     1
 93
       11
 10
302.9925957951871
 20
-3.366202487817599
 42
0.0
 10
304.2951576368996
 20
-3.366202487817599
 42
0.0
 10
304.719448570603
 20
-1.782727166044569
 42
0.0
 10
305.7229768658756
 20
-3.366202487817599
 42
0.0
 10
307.4319813527812
 20
-3.366202487817599
 42
0.0
 10
306.4284530575084
 20
-1.782727166044605
 42
0.0
 10
307.2088712088471
 20
-1.782727166044605
 42
0.3394542588635565
 10
308.0238320151974
 20
-1.157385745186676
 42
0.0
 10
308.1399807443021
 20
-0.7239127869323668
 42
0.4931454260311626
 10
307.3250199379519
 20
0.3381648137738189
 42
0.0
 10
303.9851780221165
 20
0.3381648137738189
 42
0.0
 97
        0
 92
       22
 72
     1
 73
     1
 93
        6
 10
305.0528608660489
 20
-0.5384155395741282
 42
0.0
 10
306.1676037324433
 20
-0.5384155395741282
 42
-0.4622189808356573
 10
306.5504629042012
 20
-0.9854088108844933
 42
-0.2421880062385626
 10
306.2536796635709
 20
-1.389989100972041
 42
-0.0940682372810069
 10
305.9720099839942
 20
-1.442511768716197
 42
0.0
 10
304.8106090115699
 20
-1.442511768716197
 42
0.0
 97
        0
 75
     0
 76
     1
 47
0.0617673955459683
 98
        8
 10
283.7163301185345
 20
-1.837406072780719
 10
287.7962520615678
 20
-1.21973194312876
 10
291.6289061460362
 20
-1.157964616300784
 10
291.6289061460362
 20
-1.157964616300784
 10
295.6470107449758
 20
-1.21973194312876
 10
299.8505673761962
 20
-1.281499269956622
 10
304.3013903481718
 20
-0.9108944476163394
 10
304.3013903481718
 20
-0.9108944476163394
  0
HATCH
  5
36ED
330
1B
100
AcDbEntity
 67
     1
  8
RAHMEN025
 62
   154
370
     9
100
AcDbHatch
 10
0.0
 20
0.0
 30
0.0
210
0.0
220
0.0
230
1.0
  2
SOLID
 70
     1
 71
     1
 91
        1
 92
        7
 72
     0
 73
     1
 93
        4
 10
316.9163577481607
 20
-10.55054845320821
 10
317.5119070843186
 20
-8.327928072253297
 10
294.4609011662159
 20
-8.327928072253297
 10
293.8653518300578
 20
-10.5505484532082
 97
        1
330
36EE
 75
     0
 76
     1
 47
0.0579061006172788
 98
        1
 10
303.6773460202063
 20
-9.50213974122688
  0
LWPOLYLINE
  5
36EE
102
{ACAD_REACTORS
330
36ED
102
}
330
1B
100
AcDbEntity
 67
     1
  8
RAHMEN025
370
     9
100
AcDbPolyline
 90
        4
 70
     1
 43
0.0
 10
294.4609011662159
 20
-8.327928072253297
 10
293.8653518300579
 20
-10.5505484532082
 10
316.9163577481606
 20
-10.5505484532082
 10
317.5119070843186
 20
-8.327928072253297
  0
TEXT
  5
36EF
330
1B
100
AcDbEntity
 67
     1
  8
RAHMEN025
100
AcDbText
 10
275.5215597153043
 20
10.58840441083475
 30
0.0
 40
2.5
  1
Gepr.
  7
ISO Proportional
100
AcDbText
  0
LINE
  5
36F0
330
1B
100
AcDbEntity
 67
     1
  8
RAHMEN025
100
AcDbLine
 10
285.4226261514202
 20
22.46340441083469
 30
0.0
 11
285.4226261514201
 21
1.213404410834755
 31
0.0
  0
ARC
  5
36F1
330
1B
100
AcDbEntity
 67
     1
  8
Defpoints
370
    13
100
AcDbCircle
 10
286.08511360691
 20
-5.064983586892935
 30
0.0
 40
0.9587608077068694
100
AcDbArc
 50
95.92334440423654
 51
157.3874044007999
  0
LINE
  5
36F2
330
1B
100
AcDbEntity
 67
     1
  8
RAHMEN025
370
     9
100
AcDbLine
 10
286.1278329652697
 20
0.3381648137738011
 30
0.0
 11
284.4688349463895
 21
-1.562134366407519
 31
0.0
  0
LINE
  5
36F3
330
1B
100
AcDbEntity
 67
     1
  8
RAHMEN025
370
     9
100
AcDbLine
 10
286.1278329652697
 20
0.3381648137738011
 30
0.0
 11
284.5333466554248
 21
0.3381648137738011
 31
0.0
  0
ARC
  5
36F4
330
1B
100
AcDbEntity
 67
     1
  8
Defpoints
370
    13
100
AcDbCircle
 10
285.6155896647962
 20
-6.724656179496548
 30
0.0
 40
0.9587608077068694
100
AcDbArc
 50
171.0200151799534
 51
262.0635437036931
  0
LINE
  5
36F5
330
1B
100
AcDbEntity
 67
     1
  8
Defpoints
370
    13
100
AcDbLine
 10
280.6314274538903
 20
-4.035076843573847
 30
0.0
 11
276.8360875121402
 21
-4.035076843573847
 31
0.0
  0
LINE
  5
36F6
330
1B
100
AcDbEntity
 67
     1
  8
Defpoints
370
    13
100
AcDbLine
 10
275.8435052852106
 20
-7.73944414516518
 30
0.0
 11
279.6388452269606
 21
-7.73944414516518
 31
0.0
  0
LINE
  5
36F7
330
1B
100
AcDbEntity
 67
     1
  8
Defpoints
370
    13
100
AcDbLine
 10
276.8360875121402
 20
-4.035076843573847
 30
0.0
 11
275.8435052852102
 21
-7.73944414516518
 31
0.0
  0
LINE
  5
36F8
330
1B
100
AcDbEntity
 67
     1
  8
Defpoints
370
    13
100
AcDbLine
 10
280.3583402805418
 20
-5.054252049406102
 30
0.0
 11
280.6314274538903
 21
-4.035076843573847
 31
0.0
  0
LINE
  5
36F9
330
1B
100
AcDbEntity
 67
     1
  8
Defpoints
370
    13
100
AcDbLine
 10
283.133209186155
 20
-5.787236075104999
 30
0.0
 11
283.6026988372545
 21
-4.035076843573847
 31
0.0
  0
LINE
  5
36FA
330
1B
100
AcDbEntity
 67
     1
  8
Defpoints
370
    13
100
AcDbLine
 10
282.4236191714063
 20
-4.035076843573847
 30
0.0
 11
283.133209186155
 21
-5.787236075104999
 31
0.0
  0
LINE
  5
36FB
330
1B
100
AcDbEntity
 67
     1
  8
Defpoints
370
    13
100
AcDbLine
 10
280.2342932057922
 20
-5.517202034901742
 30
0.0
 11
277.7415151057543
 21
-5.517202034901742
 31
0.0
  0
LINE
  5
36FC
330
1B
100
AcDbEntity
 67
     1
  8
Defpoints
370
    13
100
AcDbLine
 10
277.865562180504
 20
-5.054252049406102
 30
0.0
 11
277.7415151057543
 21
-5.517202034901742
 31
0.0
  0
LINE
  5
36FD
330
1B
100
AcDbEntity
 67
     1
  8
Defpoints
370
    13
100
AcDbLine
 10
280.3583402805418
 20
-5.054252049406102
 30
0.0
 11
277.8552862131377
 21
-5.054252049406102
 31
0.0
  0
LINE
  5
36FE
330
1B
100
AcDbEntity
 67
     1
  8
Defpoints
370
    13
100
AcDbLine
 10
277.5431210508443
 20
-6.257618727747058
 30
0.0
 11
280.0358991508821
 21
-6.257618727747058
 31
0.0
  0
LINE
  5
36FF
330
1B
100
AcDbEntity
 67
     1
  8
Defpoints
370
    13
100
AcDbLine
 10
280.0358991508821
 20
-6.257618727747058
 30
0.0
 11
280.2342932057922
 21
-5.517202034901742
 31
0.0
  0
HATCH
  5
3700
330
1B
100
AcDbEntity
 67
     1
  8
RAHMEN025
 62
   154
370
     9
100
AcDbHatch
 10
0.0
 20
0.0
 30
0.0
210
0.0
220
0.0
230
1.0
  2
SOLID
 70
     1
 71
     1
 91
        1
 92
        7
 72
     0
 73
     1
 93
        4
 10
280.5447338661539
 20
-3.306453186512268
 10
281.1402832023119
 20
-1.083832805557303
 10
277.6887442945672
 20
-1.083832805557303
 10
277.093194958409
 20
-3.306453186512268
 97
        1
330
3701
 75
     0
 76
     1
 47
0.0587514446152511
 98
        1
 10
278.8966870343997
 20
-2.500467662481934
  0
LWPOLYLINE
  5
3701
102
{ACAD_REACTORS
330
3700
102
}
330
1B
100
AcDbEntity
 67
     1
  8
RAHMEN025
 62
   154
370
     9
100
AcDbPolyline
 90
        4
 70
     1
 43
0.0
 10
277.6887442945672
 20
-1.083832805557303
 10
277.093194958409
 20
-3.306453186512268
 10
280.5447338661538
 20
-3.306453186512268
 10
281.1402832023119
 20
-1.083832805557303
  0
LINE
  5
3702
330
1B
100
AcDbEntity
 67
     1
  8
Defpoints
370
    13
100
AcDbLine
 10
282.4236191714063
 20
-4.035076843573847
 30
0.0
 11
281.1624333241396
 21
-4.035076843573847
 31
0.0
  0
LINE
  5
3703
330
1B
100
AcDbEntity
 67
     1
  8
Defpoints
370
    13
100
AcDbLine
 10
284.918069976813
 20
-4.035076843573847
 30
0.0
 11
283.6026988372545
 21
-4.035076843573847
 31
0.0
  0
LINE
  5
3704
330
1B
100
AcDbEntity
 67
     1
  8
RAHMEN025
370
     9
100
AcDbLine
 10
284.5333466554248
 20
0.3381648137738011
 30
0.0
 11
283.2372554639809
 21
-1.146442762915398
 31
0.0
  0
LINE
  5
3705
330
1B
100
AcDbEntity
 67
     1
  8
RAHMEN025
370
     9
100
AcDbLine
 10
283.6350548652319
 20
0.3381648137738011
 30
0.0
 11
283.2372554639809
 21
-1.146442762915398
 31
0.0
  0
LINE
  5
3706
330
1B
100
AcDbEntity
 67
     1
  8
RAHMEN025
370
     9
100
AcDbLine
 10
283.6350548652319
 20
0.3381648137738011
 30
0.0
 11
282.2927897344423
 21
0.3381648137738011
 31
0.0
  0
LINE
  5
3707
330
1B
100
AcDbEntity
 67
     1
  8
RAHMEN025
370
     9
100
AcDbLine
 10
282.2927897344423
 20
0.3381648137738011
 30
0.0
 11
281.3002075075123
 21
-3.366202487817588
 31
0.0
  0
LINE
  5
3708
330
1B
100
AcDbEntity
 67
     1
  8
RAHMEN025
370
     9
100
AcDbLine
 10
281.3002075075123
 20
-3.366202487817588
 30
0.0
 11
282.6424726383018
 21
-3.366202487817588
 31
0.0
  0
LINE
  5
3709
330
1B
100
AcDbEntity
 67
     1
  8
RAHMEN025
370
     9
100
AcDbLine
 10
283.1020113026555
 20
-1.651180844408656
 30
0.0
 11
282.6424726383018
 21
-3.366202487817588
 31
0.0
  0
LINE
  5
370A
330
1B
100
AcDbEntity
 67
     1
  8
RAHMEN025
370
     9
100
AcDbLine
 10
283.1020113026555
 20
-1.651180844408656
 30
0.0
 11
283.7306248269862
 21
-3.352913656911596
 31
0.0
  0
ARC
  5
370B
330
1B
100
AcDbEntity
 67
     1
  8
Defpoints
370
    13
100
AcDbCircle
 10
292.792763084715
 20
-7.858838814259627
 30
0.0
 40
8.224997010073714
100
AcDbArc
 50
157.3874044007955
 51
171.0200151799534
  0
LINE
  5
370C
330
1B
100
AcDbEntity
 67
     1
  8
RAHMEN025
370
     9
100
AcDbLine
 10
283.6946503550459
 20
-3.366202487817588
 30
0.0
 11
285.1352507383397
 21
-3.366202487817588
 31
0.0
  0
LINE
  5
370D
330
1B
100
AcDbEntity
 67
     1
  8
RAHMEN025
370
     9
100
AcDbLine
 10
284.4688349463895
 20
-1.562134366407519
 30
0.0
 11
285.1352507383397
 21
-3.366202487817588
 31
0.0
  0
LINE
  5
370E
330
1B
100
AcDbEntity
 67
     1
  8
Defpoints
370
    13
100
AcDbLine
 10
280.1698510972099
 20
-7.73944414516518
 30
0.0
 11
281.4724129389225
 21
-7.73944414516518
 31
0.0
  0
LINE
  5
370F
330
1B
100
AcDbEntity
 67
     1
  8
Defpoints
370
    13
100
AcDbLine
 10
279.6388452269606
 20
-7.73944414516518
 30
0.0
 11
279.9115875272623
 21
-6.721556023067307
 31
0.0
  0
LINE
  5
3710
330
1B
100
AcDbEntity
 67
     1
  8
Defpoints
370
    13
100
AcDbLine
 10
277.4188094272244
 20
-6.721556023067307
 30
0.0
 11
279.9218634946285
 21
-6.721556023067307
 31
0.0
  0
LINE
  5
3711
330
1B
100
AcDbEntity
 67
     1
  8
Defpoints
370
    13
100
AcDbLine
 10
282.6514430095775
 20
-7.73944414516518
 30
0.0
 11
283.9254877498829
 21
-7.73944414516518
 31
0.0
  0
LINE
  5
3712
330
1B
100
AcDbEntity
 67
     1
  8
Defpoints
370
    13
100
AcDbLine
 10
281.1624333241396
 20
-4.035076843573847
 30
0.0
 11
280.1698510972099
 21
-7.73944414516518
 31
0.0
  0
LINE
  5
3713
330
1B
100
AcDbEntity
 67
     1
  8
Defpoints
370
    13
100
AcDbLine
 10
283.9254877498829
 20
-7.73944414516518
 30
0.0
 11
284.9180699768125
 21
-4.035076843573847
 31
0.0
  0
LINE
  5
3714
330
1B
100
AcDbEntity
 67
     1
  8
Defpoints
370
    13
100
AcDbLine
 10
277.5431210508443
 20
-6.257618727747058
 30
0.0
 11
277.4188094272244
 21
-6.721556023067307
 31
0.0
  0
LINE
  5
3715
330
1B
100
AcDbEntity
 67
     1
  8
Defpoints
100
AcDbLine
 10
277.5431210508443
 20
-6.257618727747058
 30
0.0
 11
277.4290853945907
 21
-6.683205590759087
 31
0.0
  0
LINE
  5
3716
330
1B
100
AcDbEntity
 67
     1
  8
Defpoints
370
    13
100
AcDbLine
 10
281.9443077031283
 20
-5.978308909324027
 30
0.0
 11
281.4724129389225
 21
-7.73944414516518
 31
0.0
  0
LINE
  5
3717
330
1B
100
AcDbEntity
 67
     1
  8
Defpoints
370
    13
100
AcDbLine
 10
282.6514430095775
 20
-7.73944414516518
 30
0.0
 11
281.9443077031283
 21
-5.978308909324027
 31
0.0
  0
TEXT
  5
3718
330
1B
100
AcDbEntity
 67
     1
  8
RAHMEN025
100
AcDbText
 10
275.5215597153043
 20
6.338404410834755
 30
0.0
 40
2.5
  1
Norm
  7
ISO Proportional
100
AcDbText
  0
LINE
  5
3719
330
1B
100
AcDbEntity
 67
     1
  8
Defpoints
370
    13
100
AcDbLine
 10
293.3136666583388
 20
-5.787236075104999
 30
0.0
 11
293.7831563094384
 21
-4.035076843573847
 31
0.0
  0
LINE
  5
371A
330
1B
100
AcDbEntity
 67
     1
  8
RAHMEN025
370
     9
100
AcDbLine
 10
294.1170482959117
 20
0.3381648137738011
 30
0.0
 11
291.6066094563094
 21
0.3381648137738011
 31
0.0
  0
LINE
  5
371B
330
1B
100
AcDbEntity
 67
     1
  8
RAHMEN025
370
     9
100
AcDbLine
 10
293.0004117492178
 20
-3.366202487817588
 30
0.0
 11
294.3042774943686
 21
-3.366202487817588
 31
0.0
  0
LINE
  5
371C
330
1B
100
AcDbEntity
 67
     1
  8
Defpoints
370
    13
100
AcDbLine
 10
292.8319004817612
 20
-7.73944414516518
 30
0.0
 11
294.1059452220665
 21
-7.73944414516518
 31
0.0
  0
ARC
  5
371D
330
1B
100
AcDbEntity
 67
     1
  8
Defpoints
370
    13
100
AcDbCircle
 10
287.479245550313
 20
-18.50217292837362
 30
0.0
 40
14.46807838019826
100
AcDbArc
 50
83.51735091136808
 51
95.92334440423654
  0
LINE
  5
371E
330
1B
100
AcDbEntity
 67
     1
  8
Defpoints
370
    13
100
AcDbLine
 10
292.60407664359
 20
-4.035076843573847
 30
0.0
 11
293.3136666583388
 21
-5.787236075104999
 31
0.0
  0
ARC
  5
371F
330
1B
100
AcDbEntity
 67
     1
  8
Defpoints
370
    13
100
AcDbCircle
 10
286.8713783468854
 20
-5.457925941385155
 30
0.0
 40
0.4602051876992975
100
AcDbArc
 50
93.02614479233048
 51
158.0969939507942
  0
ARC
  5
3720
330
1B
100
AcDbEntity
 67
     1
  8
Defpoints
370
    13
100
AcDbCircle
 10
287.3146930358677
 20
-13.84365754934128
 30
0.0
 40
8.85764661435673
100
AcDbArc
 50
80.0265067162775
 51
93.02614479233048
  0
LINE
  5
3721
330
1B
100
AcDbEntity
 67
     1
  8
Defpoints
370
    13
100
AcDbLine
 10
288.8487715109474
 20
-5.119867846630597
 30
0.0
 11
289.1127252332111
 21
-4.126602117406889
 31
0.0
  0
LINE
  5
3722
330
1B
100
AcDbEntity
 67
     1
  8
Defpoints
370
    13
100
AcDbLine
 10
287.0280066120146
 20
-5.85256661665096
 30
0.0
 11
288.5927287910115
 21
-5.85256661665096
 31
0.0
  0
ARC
  5
3723
330
1B
100
AcDbEntity
 67
     1
  8
Defpoints
370
    13
100
AcDbCircle
 10
292.2167972869871
 20
-7.607096355474311
 30
0.0
 40
6.22149298766157
100
AcDbArc
 50
158.0969939507942
 51
170.4856136403676
  0
LINE
  5
3724
330
1B
100
AcDbEntity
 67
     1
  8
Defpoints
370
    13
100
AcDbLine
 10
290.8810142292262
 20
-4.035076843573847
 30
0.0
 11
289.5387490984366
 21
-4.035076843573847
 31
0.0
  0
LINE
  5
3725
330
1B
100
AcDbEntity
 67
     1
  8
RAHMEN025
370
     9
100
AcDbLine
 10
289.2770332184253
 20
-3.366202487817588
 30
0.0
 11
290.2696154453549
 21
0.3381648137738011
 31
0.0
  0
LINE
  5
3726
330
1B
100
AcDbEntity
 67
     1
  8
RAHMEN025
370
     9
100
AcDbLine
 10
290.2696154453549
 20
0.3381648137738011
 30
0.0
 11
288.9542443057969
 21
0.3381648137738011
 31
0.0
  0
LINE
  5
3727
330
1B
100
AcDbEntity
 67
     1
  8
RAHMEN025
370
     9
100
AcDbLine
 10
289.5837884051681
 20
-3.366202487817588
 30
0.0
 11
291.6066094563094
 21
0.3381648137738011
 31
0.0
  0
LINE
  5
3728
330
1B
100
AcDbEntity
 67
     1
  8
RAHMEN025
370
     9
100
AcDbLine
 10
289.5837884051681
 20
-3.366202487817588
 30
0.0
 11
291.1817849206088
 21
-3.366202487817588
 31
0.0
  0
LINE
  5
3729
330
1B
100
AcDbEntity
 67
     1
  8
RAHMEN025
370
     9
100
AcDbLine
 10
287.7751646399486
 20
0.3381648137738011
 30
0.0
 11
286.5139787926819
 21
0.3381648137738011
 31
0.0
  0
LINE
  5
372A
330
1B
100
AcDbEntity
 67
     1
  8
RAHMEN025
370
     9
100
AcDbLine
 10
286.5139787926819
 20
0.3381648137738011
 30
0.0
 11
285.5213965657522
 21
-3.366202487817588
 31
0.0
  0
LINE
  5
372B
330
1B
100
AcDbEntity
 67
     1
  8
RAHMEN025
370
     9
100
AcDbLine
 10
285.5213965657522
 20
-3.366202487817588
 30
0.0
 11
286.8239584074647
 21
-3.366202487817588
 31
0.0
  0
LINE
  5
372C
330
1B
100
AcDbEntity
 67
     1
  8
RAHMEN025
370
     9
100
AcDbLine
 10
287.2958531716701
 20
-1.605067251976379
 30
0.0
 11
286.8239584074647
 21
-3.366202487817588
 31
0.0
  0
LINE
  5
372D
330
1B
100
AcDbEntity
 67
     1
  8
RAHMEN025
370
     9
100
AcDbLine
 10
288.0029884781199
 20
-3.366202487817588
 30
0.0
 11
287.2958531716701
 21
-1.605067251976379
 31
0.0
  0
LINE
  5
372E
330
1B
100
AcDbEntity
 67
     1
  8
RAHMEN025
370
     9
100
AcDbLine
 10
288.0029884781199
 20
-3.366202487817588
 30
0.0
 11
289.2770332184253
 21
-3.366202487817588
 31
0.0
  0
LINE
  5
372F
330
1B
100
AcDbEntity
 67
     1
  8
RAHMEN025
370
     9
100
AcDbLine
 10
288.4847546546975
 20
-1.413994417757351
 30
0.0
 11
288.9542443057969
 21
0.3381648137738011
 31
0.0
  0
LINE
  5
3730
330
1B
100
AcDbEntity
 67
     1
  8
RAHMEN025
370
     9
100
AcDbLine
 10
287.7751646399486
 20
0.3381648137738011
 30
0.0
 11
288.4847546546975
 21
-1.413994417757351
 31
0.0
  0
LINE
  5
3731
330
1B
100
AcDbEntity
 67
     1
  8
Defpoints
370
    13
100
AcDbLine
 10
292.60407664359
 20
-4.035076843573847
 30
0.0
 11
291.3428907963233
 21
-4.035076843573847
 31
0.0
  0
LINE
  5
3732
330
1B
100
AcDbEntity
 67
     1
  8
RAHMEN025
370
     9
100
AcDbLine
 10
291.1817849206088
 20
-3.366202487817588
 30
0.0
 11
291.4703170524049
 21
-2.837817145040332
 31
0.0
  0
LINE
  5
3733
330
1B
100
AcDbEntity
 67
     1
  8
RAHMEN025
370
     9
100
AcDbLine
 10
291.4703170524049
 20
-2.837817145040332
 30
0.0
 11
292.973705659851
 21
-2.837817145040332
 31
0.0
  0
LINE
  5
3734
330
1B
100
AcDbEntity
 67
     1
  8
RAHMEN025
370
     9
100
AcDbLine
 10
293.0004117492178
 20
-3.366202487817588
 30
0.0
 11
292.973705659851
 21
-2.837817145040332
 31
0.0
  0
LINE
  5
3735
330
1B
100
AcDbEntity
 67
     1
  8
RAHMEN025
370
     9
100
AcDbLine
 10
292.9330660729957
 20
-2.033754755529173
 30
0.0
 11
292.846342834507
 21
-0.3179180612878554
 31
0.0
  0
LINE
  5
3736
330
1B
100
AcDbEntity
 67
     1
  8
RAHMEN025
370
     9
100
AcDbLine
 10
291.9093864522549
 20
-2.033754755529173
 30
0.0
 11
292.9330660729957
 21
-2.033754755529173
 31
0.0
  0
LINE
  5
3737
330
1B
100
AcDbEntity
 67
     1
  8
RAHMEN025
370
     9
100
AcDbLine
 10
291.9093864522549
 20
-2.033754755529173
 30
0.0
 11
292.846342834507
 21
-0.3179180612878554
 31
0.0
  0
LINE
  5
3738
330
1B
100
AcDbEntity
 67
     1
  8
Defpoints
370
    13
100
AcDbLine
 10
288.546166871507
 20
-7.73944414516518
 30
0.0
 11
289.8884320022966
 21
-7.73944414516518
 31
0.0
  0
ARC
  5
3739
330
1B
100
AcDbEntity
 67
     1
  8
Defpoints
370
    13
100
AcDbCircle
 10
286.4661981681718
 20
-0.6231702804805082
 30
0.0
 40
7.119253077153191
100
AcDbArc
 50
262.0635437036931
 51
271.6576250419802
  0
LINE
  5
373A
330
1B
100
AcDbEntity
 67
     1
  8
Defpoints
370
    13
100
AcDbLine
 10
288.0871414810298
 20
-7.73944414516518
 30
0.0
 11
286.3580971498903
 21
-7.73944414516518
 31
0.0
  0
ARC
  5
373B
330
1B
100
AcDbEntity
 67
     1
  8
Defpoints
370
    13
100
AcDbCircle
 10
286.5016668032594
 20
-6.560030949430654
 30
0.0
 40
0.4602051876992975
100
AcDbArc
 50
270.0
 51
334.2263645027491
  0
LINE
  5
373C
330
1B
100
AcDbEntity
 67
     1
  8
Defpoints
370
    13
100
AcDbLine
 10
286.4599765814238
 20
-7.020236137130154
 30
0.0
 11
286.5016668032594
 21
-7.020236137130154
 31
0.0
  0
ARC
  5
373D
330
1B
100
AcDbEntity
 67
     1
  8
Defpoints
100
AcDbCircle
 10
287.2618474781678
 20
-6.588931175916968
 30
0.0
 40
1.150512969248243
100
AcDbArc
 50
270.0
 51
270.0
  0
LINE
  5
373E
330
1B
100
AcDbEntity
 67
     1
  8
Defpoints
370
    13
100
AcDbLine
 10
290.3503085693935
 20
-7.73944414516518
 30
0.0
 11
291.6528704111058
 21
-7.73944414516518
 31
0.0
  0
LINE
  5
373F
330
1B
100
AcDbEntity
 67
     1
  8
Defpoints
370
    13
100
AcDbLine
 10
289.5387490984366
 20
-4.035076843573847
 30
0.0
 11
288.546166871507
 21
-7.73944414516518
 31
0.0
  0
LINE
  5
3740
330
1B
100
AcDbEntity
 67
     1
  8
Defpoints
370
    13
100
AcDbLine
 10
290.8810142292262
 20
-4.035076843573847
 30
0.0
 11
289.8884320022966
 21
-7.73944414516518
 31
0.0
  0
LINE
  5
3741
330
1B
100
AcDbEntity
 67
     1
  8
Defpoints
370
    13
100
AcDbLine
 10
291.3428907963233
 20
-4.035076843573847
 30
0.0
 11
290.3503085693935
 21
-7.73944414516518
 31
0.0
  0
LINE
  5
3742
330
1B
100
AcDbEntity
 67
     1
  8
Defpoints
370
    13
100
AcDbLine
 10
288.0871414810298
 20
-7.73944414516518
 30
0.0
 11
288.5927287910115
 21
-5.85256661665096
 31
0.0
  0
ARC
  5
3743
330
1B
100
AcDbEntity
 67
     1
  8
Defpoints
370
    13
100
AcDbCircle
 10
285.634761516684
 20
-6.141444575968819
 30
0.0
 40
1.422878199650913
100
AcDbArc
 50
334.2263645027383
 51
11.71383119333059
  0
ARC
  5
3744
330
1B
100
AcDbEntity
 67
     1
  8
Defpoints
370
    13
100
AcDbCircle
 10
286.4599765814238
 20
-6.636731814047379
 30
0.0
 40
0.3835043230827479
100
AcDbArc
 50
171.2985646492635
 51
270.0
  0
LINE
  5
3745
330
1B
100
AcDbEntity
 67
     1
  8
Defpoints
370
    13
100
AcDbLine
 10
292.1247651753115
 20
-5.978308909324027
 30
0.0
 11
291.6528704111058
 21
-7.73944414516518
 31
0.0
  0
LINE
  5
3746
330
1B
100
AcDbEntity
 67
     1
  8
Defpoints
370
    13
100
AcDbLine
 10
292.8319004817612
 20
-7.73944414516518
 30
0.0
 11
292.1247651753115
 21
-5.978308909324027
 31
0.0
  0
LINE
  5
3747
330
1B
100
AcDbEntity
 67
     1
  8
Defpoints
370
    13
100
AcDbLine
 10
299.0991408441579
 20
-5.054252049406102
 30
0.0
 11
299.3722280175066
 21
-4.035076843573847
 31
0.0
  0
LINE
  5
3748
330
1B
100
AcDbEntity
 67
     1
  8
Defpoints
370
    13
100
AcDbLine
 10
299.3722280175066
 20
-4.035076843573847
 30
0.0
 11
295.5768880757563
 21
-4.035076843573847
 31
0.0
  0
LINE
  5
3749
330
1B
100
AcDbEntity
 67
     1
  8
RAHMEN025
370
     9
100
AcDbLine
 10
299.6542251838788
 20
0.3381648137738011
 30
0.0
 11
298.6616429569492
 21
-3.366202487817588
 31
0.0
  0
LINE
  5
374A
330
1B
100
AcDbEntity
 67
     1
  8
Defpoints
370
    13
100
AcDbLine
 10
299.0991408441579
 20
-5.054252049406102
 30
0.0
 11
296.5960867767536
 21
-5.054252049406102
 31
0.0
  0
LINE
  5
374B
330
1B
100
AcDbEntity
 67
     1
  8
Defpoints
370
    13
100
AcDbLine
 10
296.2839216144602
 20
-6.257618727747058
 30
0.0
 11
298.776699714498
 21
-6.257618727747058
 31
0.0
  0
LINE
  5
374C
330
1B
100
AcDbEntity
 67
     1
  8
Defpoints
370
    13
100
AcDbLine
 10
298.776699714498
 20
-6.257618727747058
 30
0.0
 11
298.9750937694087
 21
-5.517202034901742
 31
0.0
  0
LINE
  5
374D
330
1B
100
AcDbEntity
 67
     1
  8
Defpoints
370
    13
100
AcDbLine
 10
298.9750937694087
 20
-5.517202034901742
 30
0.0
 11
296.4823156693708
 21
-5.517202034901742
 31
0.0
  0
LINE
  5
374E
330
1B
100
AcDbEntity
 67
     1
  8
Defpoints
370
    13
100
AcDbLine
 10
296.6063627441201
 20
-5.054252049406102
 30
0.0
 11
296.4823156693708
 21
-5.517202034901742
 31
0.0
  0
LINE
  5
374F
330
1B
100
AcDbEntity
 67
     1
  8
RAHMEN025
370
     9
100
AcDbLine
 10
296.6706593196065
 20
0.3381648137738011
 30
0.0
 11
295.2364635852351
 21
0.3381648137738011
 31
0.0
  0
LINE
  5
3750
330
1B
100
AcDbEntity
 67
     1
  8
RAHMEN025
370
     9
100
AcDbLine
 10
295.2364635852351
 20
0.3381648137738011
 30
0.0
 11
294.5838112270994
 21
-2.097566946469157
 31
0.0
  0
ARC
  5
3751
330
1B
100
AcDbEntity
 67
     1
  8
RAHMEN025
370
     9
100
AcDbCircle
 10
296.4004556278129
 20
3.750071376867197
 30
0.0
 40
7.119253077153191
100
AcDbArc
 50
261.6882763531174
 51
278.5178280220953
  0
ARC
  5
3752
330
1B
100
AcDbEntity
 67
     1
  8
RAHMEN025
370
     9
100
AcDbCircle
 10
297.3015694345098
 20
-2.266614734678
 30
0.0
 40
1.035461672323419
100
AcDbArc
 50
278.5178280220953
 51
344.9999999999992
  0
LINE
  5
3753
330
1B
100
AcDbEntity
 67
     1
  8
RAHMEN025
370
     9
100
AcDbLine
 10
298.3017486059397
 20
-2.534611935948873
 30
0.0
 11
299.0715068160625
 21
0.3381648137738011
 31
0.0
  0
LINE
  5
3754
330
1B
100
AcDbEntity
 67
     1
  8
RAHMEN025
370
     9
100
AcDbLine
 10
299.0715068160625
 20
0.3381648137738011
 30
0.0
 11
297.606490416907
 21
0.3381648137738011
 31
0.0
  0
LINE
  5
3755
330
1B
100
AcDbEntity
 67
     1
  8
RAHMEN025
370
     9
100
AcDbLine
 10
296.8751665566663
 20
-2.391172989431652
 30
0.0
 11
297.606490416907
 21
0.3381648137738011
 31
0.0
  0
ARC
  5
3756
330
1B
100
AcDbEntity
 67
     1
  8
RAHMEN025
370
     9
100
AcDbCircle
 10
296.5417734995229
 20
-2.301840589007895
 30
0.0
 40
0.3451538907744731
100
AcDbArc
 50
270.0
 51
344.9999999999992
  0
LINE
  5
3757
330
1B
100
AcDbEntity
 67
     1
  8
RAHMEN025
370
     9
100
AcDbLine
 10
296.5417734995229
 20
-2.646994479782222
 30
0.0
 11
296.3206016056123
 21
-2.646994479782222
 31
0.0
  0
ARC
  5
3758
330
1B
100
AcDbEntity
 67
     1
  8
RAHMEN025
370
     9
100
AcDbCircle
 10
296.3206016056123
 20
-2.301840589007895
 30
0.0
 40
0.3451538907744731
100
AcDbArc
 50
164.9999999999992
 51
270.0
  0
LINE
  5
3759
330
1B
100
AcDbEntity
 67
     1
  8
RAHMEN025
370
     9
100
AcDbLine
 10
296.6706593196065
 20
0.3381648137738011
 30
0.0
 11
295.9872085484688
 21
-2.212508188584195
 31
0.0
  0
LINE
  5
375A
330
1B
100
AcDbEntity
 67
     1
  8
Defpoints
370
    13
100
AcDbLine
 10
300.8420981176744
 20
-5.054252049406102
 30
0.0
 11
300.7180510429247
 21
-5.517202034901742
 31
0.0
  0
LINE
  5
375B
330
1B
100
AcDbEntity
 67
     1
  8
RAHMEN025
370
     9
100
AcDbLine
 10
300.6836998522424
 20
-0.681010392058397
 30
0.0
 11
300.5596527774933
 21
-1.143960377554094
 31
0.0
  0
LINE
  5
375C
330
1B
100
AcDbEntity
 67
     1
  8
RAHMEN025
370
     9
100
AcDbLine
 10
300.3612587225827
 20
-1.884377070399125
 30
0.0
 11
300.236947098963
 21
-2.348314365719602
 31
0.0
  0
LINE
  5
375D
330
1B
100
AcDbEntity
 67
     1
  8
RAHMEN025
370
     9
100
AcDbLine
 10
300.3612587225827
 20
-1.884377070399125
 30
0.0
 11
300.2472230663294
 21
-2.309963933411324
 31
0.0
  0
LINE
  5
375E
330
1B
100
AcDbEntity
 67
     1
  8
Defpoints
370
    13
100
AcDbLine
 10
294.5843058488266
 20
-7.73944414516518
 30
0.0
 11
298.3796457905767
 21
-7.73944414516518
 31
0.0
  0
LINE
  5
375F
330
1B
100
AcDbEntity
 67
     1
  8
Defpoints
370
    13
100
AcDbLine
 10
298.3796457905767
 20
-7.73944414516518
 30
0.0
 11
298.6523880908783
 21
-6.721556023067307
 31
0.0
  0
LINE
  5
3760
330
1B
100
AcDbEntity
 67
     1
  8
Defpoints
370
    13
100
AcDbLine
 10
296.1596099908405
 20
-6.721556023067307
 30
0.0
 11
298.6626640582445
 21
-6.721556023067307
 31
0.0
  0
LINE
  5
3761
330
1B
100
AcDbEntity
 67
     1
  8
Defpoints
370
    13
100
AcDbLine
 10
299.8126234493107
 20
-4.035076843573847
 30
0.0
 11
298.8200412223806
 21
-7.73944414516518
 31
0.0
  0
LINE
  5
3762
330
1B
100
AcDbEntity
 67
     1
  8
Defpoints
370
    13
100
AcDbLine
 10
295.5768880757563
 20
-4.035076843573847
 30
0.0
 11
294.5843058488266
 21
-7.73944414516518
 31
0.0
  0
LINE
  5
3763
330
1B
100
AcDbEntity
 67
     1
  8
Defpoints
370
    13
100
AcDbLine
 10
296.2839216144602
 20
-6.257618727747058
 30
0.0
 11
296.1596099908405
 21
-6.721556023067307
 31
0.0
  0
LINE
  5
3764
330
1B
100
AcDbEntity
 67
     1
  8
Defpoints
100
AcDbLine
 10
296.2839216144602
 20
-6.257618727747058
 30
0.0
 11
296.1698859582067
 21
-6.683205590759087
 31
0.0
  0
LINE
  5
3765
330
1B
100
AcDbEntity
 67
     1
  8
Defpoints
370
    13
100
AcDbLine
 10
300.5196569880142
 20
-6.257618727747058
 30
0.0
 11
300.3953453643946
 21
-6.721556023067307
 31
0.0
  0
LINE
  5
3766
330
1B
100
AcDbEntity
 67
     1
  8
Defpoints
100
AcDbLine
 10
300.5196569880142
 20
-6.257618727747058
 30
0.0
 11
300.4056213317612
 21
-6.683205590759087
 31
0.0
  0
LINE
  5
3767
330
1B
100
AcDbEntity
 67
     1
  8
RAHMEN025
370
     9
100
AcDbLine
 10
294.3043753386221
 20
-3.368138356026349
 30
0.0
 11
294.1170482959117
 21
0.3381648137738011
 31
0.0
  0
LINE
  5
3768
330
1B
100
AcDbEntity
 67
     1
  8
Defpoints
370
    13
100
AcDbLine
 10
294.1059452220665
 20
-7.73944414516518
 30
0.0
 11
295.0985274489963
 21
-4.035076843573847
 31
0.0
  0
LINE
  5
3769
330
1B
100
AcDbEntity
 67
     1
  8
Defpoints
370
    13
100
AcDbLine
 10
295.0985274489963
 20
-4.035076843573847
 30
0.0
 11
293.7831563094384
 21
-4.035076843573847
 31
0.0
  0
ARC
  5
376A
330
1B
100
AcDbEntity
 67
     1
  8
RAHMEN025
370
     9
100
AcDbCircle
 10
295.509903052497
 20
-2.345712503201582
 30
0.0
 40
0.9587608077068694
100
AcDbArc
 50
164.9999999999992
 51
261.6882763531174
  0
TEXT
  5
376B
330
1B
100
AcDbEntity
 67
     1
  8
RAHMEN025
 48
1.5
100
AcDbText
 10
277.2730555394215
 20
25.34562007523897
 30
0.0
 40
2.5
  1
DIN ISO 2768-m
 41
0.65
  7
Stil1
100
AcDbText
  0
TEXT
  5
376C
330
1B
100
AcDbEntity
 67
     1
  8
RAHMEN025
100
AcDbText
 10
275.5215597153043
 20
14.83840441083475
 30
0.0
 40
2.5
  1
Bearb.
  7
ISO Proportional
100
AcDbText
  0
TEXT
  5
376D
330
1B
100
AcDbEntity
 67
     1
  8
RAHMEN025
 48
1.5
100
AcDbText
 10
286.3147961342061
 20
14.75028190609941
 30
0.0
 40
2.5
  1
12.10.2006
 41
0.65
  7
Stil1
100
AcDbText
  0
TEXT
  5
376E
330
1B
100
AcDbEntity
 67
     1
  8
RAHMEN025
100
AcDbText
 10
289.2505370063376
 20
19.08840441083475
 30
0.0
 40
2.5
  1
Datum
  7
ISO Proportional
100
AcDbText
  0
ARC
  5
376F
330
1B
100
AcDbEntity
 67
     1
  8
Defpoints
370
    13
100
AcDbCircle
 10
317.0998455651316
 20
-18.50217292837362
 30
0.0
 40
14.46807838019826
100
AcDbArc
 50
83.51735091136808
 51
95.92334440423654
  0
ARC
  5
3770
330
1B
100
AcDbEntity
 67
     1
  8
Defpoints
370
    13
100
AcDbCircle
 10
316.935293050686
 20
-13.84365754934128
 30
0.0
 40
8.85764661435673
100
AcDbArc
 50
80.0265067162775
 51
93.02614479233048
  0
LINE
  5
3771
330
1B
100
AcDbEntity
 67
     1
  8
Defpoints
370
    13
100
AcDbLine
 10
316.6486066268327
 20
-5.85256661665096
 30
0.0
 11
318.2133288058295
 21
-5.85256661665096
 31
0.0
  0
LINE
  5
3772
330
1B
100
AcDbEntity
 67
     1
  8
Defpoints
370
    13
100
AcDbLine
 10
317.7077414958478
 20
-7.73944414516518
 30
0.0
 11
318.2133288058295
 21
-5.85256661665096
 31
0.0
  0
ARC
  5
3773
330
1B
100
AcDbEntity
 67
     1
  8
RAHMEN025
370
     9
100
AcDbCircle
 10
307.3250199379523
 20
-0.5055446970083608
 30
0.0
 40
0.8437095107820451
100
AcDbArc
 50
344.9999529879283
 51
90.0
  0
LINE
  5
3774
330
1B
100
AcDbEntity
 67
     1
  8
Defpoints
370
    13
100
AcDbLine
 10
310.3737397993581
 20
-4.035076843573847
 30
0.0
 11
309.0314746685686
 21
-4.035076843573847
 31
0.0
  0
LINE
  5
3775
330
1B
100
AcDbEntity
 67
     1
  8
Defpoints
370
    13
100
AcDbLine
 10
309.8430341395252
 20
-7.73944414516518
 30
0.0
 11
311.1455959812378
 21
-7.73944414516518
 31
0.0
  0
LINE
  5
3776
330
1B
100
AcDbEntity
 67
     1
  8
Defpoints
370
    13
100
AcDbLine
 10
310.3737397993581
 20
-4.035076843573847
 30
0.0
 11
309.3811575724286
 21
-7.73944414516518
 31
0.0
  0
LINE
  5
3777
330
1B
100
AcDbEntity
 67
     1
  8
Defpoints
370
    13
100
AcDbLine
 10
310.8356163664554
 20
-4.035076843573847
 30
0.0
 11
309.8430341395252
 21
-7.73944414516518
 31
0.0
  0
ARC
  5
3778
330
1B
100
AcDbEntity
 67
     1
  8
Defpoints
370
    13
100
AcDbCircle
 10
307.462122213734
 20
-4.868860532086614
 30
0.0
 40
0.8437095107820451
100
AcDbArc
 50
344.9999529879283
 51
90.0
  0
LINE
  5
3779
330
1B
100
AcDbEntity
 67
     1
  8
Defpoints
370
    13
100
AcDbLine
 10
308.160934290979
 20
-5.520701580265722
 30
0.0
 11
308.2770830200839
 21
-5.087228622011082
 31
0.0
  0
LINE
  5
377A
330
1B
100
AcDbEntity
 67
     1
  8
Defpoints
370
    13
100
AcDbLine
 10
307.3459734846288
 20
-6.146043001123132
 30
0.0
 11
306.5655553332902
 21
-6.146043001123132
 31
0.0
  0
ARC
  5
377B
330
1B
100
AcDbEntity
 67
     1
  8
Defpoints
370
    13
100
AcDbCircle
 10
307.3459734846288
 20
-5.302333490341027
 30
0.0
 40
0.8437095107820451
100
AcDbArc
 50
270.0
 51
345.043813904056
  0
LINE
  5
377C
330
1B
100
AcDbEntity
 67
     1
  8
Defpoints
370
    13
100
AcDbLine
 10
306.304706008153
 20
-4.901731374652683
 30
0.0
 11
305.1899631418301
 21
-4.901731374652683
 31
0.0
  0
ARC
  5
377D
330
1B
100
AcDbEntity
 67
     1
  8
Defpoints
370
    13
100
AcDbCircle
 10
306.3060229046684
 20
-5.28806354159991
 30
0.0
 40
0.386334411403646
100
AcDbArc
 50
350.9662004601523
 51
90.1953042656462
  0
ARC
  5
377E
330
1B
100
AcDbEntity
 67
     1
  8
Defpoints
370
    13
100
AcDbCircle
 10
306.1460392888978
 20
-5.262627873155167
 30
0.0
 40
0.5483274067590241
100
AcDbArc
 50
296.5093598874432
 51
350.9662004601523
  0
ARC
  5
377F
330
1B
100
AcDbEntity
 67
     1
  8
Defpoints
370
    13
100
AcDbCircle
 10
306.1115956620353
 20
-5.037612238424173
 30
0.0
 40
0.7682193793950698
100
AcDbArc
 50
270.1852188608381
 51
291.3103783431899
  0
LINE
  5
3780
330
1B
100
AcDbEntity
 67
     1
  8
Defpoints
370
    13
100
AcDbLine
 10
306.114079061521
 20
-5.805827603794512
 30
0.0
 11
304.9477112873515
 21
-5.805827603794512
 31
0.0
  0
LINE
  5
3781
330
1B
100
AcDbEntity
 67
     1
  8
Defpoints
370
    13
100
AcDbLine
 10
304.9477112873515
 20
-5.805827603794512
 30
0.0
 11
305.1899631418301
 21
-4.901731374652683
 31
0.0
  0
LINE
  5
3782
330
1B
100
AcDbEntity
 67
     1
  8
Defpoints
370
    13
100
AcDbLine
 10
307.462122213734
 20
-4.025151021304679
 30
0.0
 11
304.1222802978983
 21
-4.025151021304679
 31
0.0
  0
LINE
  5
3783
330
1B
100
AcDbEntity
 67
     1
  8
RAHMEN025
370
     9
100
AcDbLine
 10
307.3250199379523
 20
0.3381648137738011
 30
0.0
 11
303.9851780221165
 21
0.3381648137738011
 31
0.0
  0
LINE
  5
3784
330
1B
100
AcDbEntity
 67
     1
  8
RAHMEN025
370
     9
100
AcDbLine
 10
304.7194485706031
 20
-1.782727166044594
 30
0.0
 11
304.2951576368995
 21
-3.366202487817588
 31
0.0
  0
LINE
  5
3785
330
1B
100
AcDbEntity
 67
     1
  8
RAHMEN025
370
     9
100
AcDbLine
 10
304.7194485706031
 20
-1.782727166044594
 30
0.0
 11
305.7229768658756
 21
-3.366202487817588
 31
0.0
  0
LINE
  5
3786
330
1B
100
AcDbEntity
 67
     1
  8
RAHMEN025
370
     9
100
AcDbLine
 10
305.7229768658756
 20
-3.366202487817588
 30
0.0
 11
307.4319813527812
 21
-3.366202487817588
 31
0.0
  0
LINE
  5
3787
330
1B
100
AcDbEntity
 67
     1
  8
RAHMEN025
370
     9
100
AcDbLine
 10
306.4284530575084
 20
-1.782727166044594
 30
0.0
 11
307.4319813527812
 21
-3.366202487817588
 31
0.0
  0
LINE
  5
3788
330
1B
100
AcDbEntity
 67
     1
  8
RAHMEN025
370
     9
100
AcDbLine
 10
307.2088712088471
 20
-1.782727166044594
 30
0.0
 11
306.4284530575084
 21
-1.782727166044594
 31
0.0
  0
ARC
  5
3789
330
1B
100
AcDbEntity
 67
     1
  8
RAHMEN025
370
     9
100
AcDbCircle
 10
307.2088712088471
 20
-0.9390176552626599
 30
0.0
 40
0.8437095107820451
100
AcDbArc
 50
270.0
 51
345.043813904056
  0
LINE
  5
378A
330
1B
100
AcDbEntity
 67
     1
  8
RAHMEN025
370
     9
100
AcDbLine
 10
308.0238320151973
 20
-1.157385745187184
 30
0.0
 11
308.139980744302
 21
-0.7239127869327718
 31
0.0
  0
LINE
  5
378B
330
1B
100
AcDbEntity
 67
     1
  8
RAHMEN025
370
     9
100
AcDbLine
 10
306.1676037323712
 20
-0.5384155395741459
 30
0.0
 11
305.0528608660489
 21
-0.5384155395741459
 31
0.0
  0
ARC
  5
378C
330
1B
100
AcDbEntity
 67
     1
  8
RAHMEN025
370
     9
100
AcDbCircle
 10
306.1689206288865
 20
-0.924747706521657
 30
0.0
 40
0.386334411403646
100
AcDbArc
 50
350.9662004601523
 51
90.1953042656462
  0
ARC
  5
378D
330
1B
100
AcDbEntity
 67
     1
  8
RAHMEN025
370
     9
100
AcDbCircle
 10
306.0089370131162
 20
-0.8993120380768573
 30
0.0
 40
0.5483274067590241
100
AcDbArc
 50
296.5093598874432
 51
350.9662004601523
  0
ARC
  5
378E
330
1B
100
AcDbEntity
 67
     1
  8
RAHMEN025
370
     9
100
AcDbCircle
 10
305.9744933862534
 20
-0.6742964033456929
 30
0.0
 40
0.7682193793950698
100
AcDbArc
 50
270.1852188608381
 51
291.3103783431899
  0
LINE
  5
378F
330
1B
100
AcDbEntity
 67
     1
  8
RAHMEN025
370
     9
100
AcDbLine
 10
305.9769767857393
 20
-1.442511768716201
 30
0.0
 11
304.8106090115698
 21
-1.442511768716201
 31
0.0
  0
LINE
  5
3790
330
1B
100
AcDbEntity
 67
     1
  8
RAHMEN025
370
     9
100
AcDbLine
 10
304.8106090115698
 20
-1.442511768716201
 30
0.0
 11
305.0528608660489
 21
-0.5384155395741459
 31
0.0
  0
LINE
  5
3791
330
1B
100
AcDbEntity
 67
     1
  8
Defpoints
370
    13
100
AcDbLine
 10
303.3348762177122
 20
-5.054252049406102
 30
0.0
 11
303.6079633910607
 21
-4.035076843573847
 31
0.0
  0
LINE
  5
3792
330
1B
100
AcDbEntity
 67
     1
  8
Defpoints
370
    13
100
AcDbLine
 10
303.012435088052
 20
-6.257618727747058
 30
0.0
 11
303.2108291429628
 21
-5.517202034901742
 31
0.0
  0
LINE
  5
3793
330
1B
100
AcDbEntity
 67
     1
  8
RAHMEN025
370
     9
100
AcDbLine
 10
303.1764779522803
 20
-0.681010392058397
 30
0.0
 11
303.4495651256293
 21
0.3381648137738011
 31
0.0
  0
LINE
  5
3794
330
1B
100
AcDbEntity
 67
     1
  8
RAHMEN025
370
     9
100
AcDbLine
 10
302.4569828986992
 20
-3.366202487817588
 30
0.0
 11
302.7297251990008
 21
-2.348314365719602
 31
0.0
  0
LINE
  5
3795
330
1B
100
AcDbEntity
 67
     1
  8
RAHMEN025
370
     9
100
AcDbLine
 10
302.8540368226207
 20
-1.884377070399125
 30
0.0
 11
303.0524308775312
 21
-1.143960377554094
 31
0.0
  0
LINE
  5
3796
330
1B
100
AcDbEntity
 67
     1
  8
RAHMEN025
370
     9
100
AcDbLine
 10
303.9851780221165
 20
0.3381648137738011
 30
0.0
 11
302.992595795187
 21
-3.366202487817588
 31
0.0
  0
LINE
  5
3797
330
1B
100
AcDbEntity
 67
     1
  8
RAHMEN025
370
     9
100
AcDbLine
 10
302.992595795187
 20
-3.366202487817588
 30
0.0
 11
304.2951576368995
 21
-3.366202487817588
 31
0.0
  0
LINE
  5
3798
330
1B
100
AcDbEntity
 67
     1
  8
Defpoints
370
    13
100
AcDbLine
 10
308.0388924416391
 20
-7.73944414516518
 30
0.0
 11
309.3811575724286
 21
-7.73944414516518
 31
0.0
  0
LINE
  5
3799
330
1B
100
AcDbEntity
 67
     1
  8
Defpoints
370
    13
100
AcDbLine
 10
305.8600791416575
 20
-7.729518322895842
 30
0.0
 11
307.5690836285629
 21
-7.729518322895842
 31
0.0
  0
LINE
  5
379A
330
1B
100
AcDbEntity
 67
     1
  8
Defpoints
370
    13
100
AcDbLine
 10
302.6153811641311
 20
-7.73944414516518
 30
0.0
 11
302.8881234644324
 21
-6.721556023067307
 31
0.0
  0
LINE
  5
379B
330
1B
100
AcDbEntity
 67
     1
  8
Defpoints
370
    13
100
AcDbLine
 10
303.1296980709687
 20
-7.729518322895842
 30
0.0
 11
304.4322599126812
 21
-7.729518322895842
 31
0.0
  0
LINE
  5
379C
330
1B
100
AcDbEntity
 67
     1
  8
Defpoints
370
    13
100
AcDbLine
 10
304.1222802978983
 20
-4.025151021304679
 30
0.0
 11
303.1270384549074
 21
-7.73944414516518
 31
0.0
  0
LINE
  5
379D
330
1B
100
AcDbEntity
 67
     1
  8
Defpoints
370
    13
100
AcDbLine
 10
309.0314746685686
 20
-4.035076843573847
 30
0.0
 11
308.0388924416391
 21
-7.73944414516518
 31
0.0
  0
LINE
  5
379E
330
1B
100
AcDbEntity
 67
     1
  8
Defpoints
370
    13
100
AcDbLine
 10
304.856550846385
 20
-6.146043001123132
 30
0.0
 11
304.4322599126812
 21
-7.729518322895842
 31
0.0
  0
LINE
  5
379F
330
1B
100
AcDbEntity
 67
     1
  8
Defpoints
370
    13
100
AcDbLine
 10
304.856550846385
 20
-6.146043001123132
 30
0.0
 11
305.8600791416575
 21
-7.729518322895842
 31
0.0
  0
LINE
  5
37A0
330
1B
100
AcDbEntity
 67
     1
  8
Defpoints
370
    13
100
AcDbLine
 10
306.5655553332902
 20
-6.146043001123132
 30
0.0
 11
307.5690836285629
 21
-7.729518322895842
 31
0.0
  0
ARC
  5
37A1
330
1B
100
AcDbEntity
 67
     1
  8
Defpoints
370
    13
100
AcDbCircle
 10
315.7057136217281
 20
-5.064983586892935
 30
0.0
 40
0.9587608077068694
100
AcDbArc
 50
95.92334440423654
 51
157.3874044007999
  0
ARC
  5
37A2
330
1B
100
AcDbEntity
 67
     1
  8
Defpoints
370
    13
100
AcDbCircle
 10
316.4919783617036
 20
-5.457925941385155
 30
0.0
 40
0.4602051876992975
100
AcDbArc
 50
93.02614479233048
 51
158.0969939507942
  0
ARC
  5
37A3
330
1B
100
AcDbEntity
 67
     1
  8
Defpoints
370
    13
100
AcDbCircle
 10
322.4133630995336
 20
-7.858838814259627
 30
0.0
 40
8.224997010073714
100
AcDbArc
 50
157.3874044007955
 51
171.0200151799534
  0
ARC
  5
37A4
330
1B
100
AcDbEntity
 67
     1
  8
Defpoints
370
    13
100
AcDbCircle
 10
321.8373973018052
 20
-7.607096355474311
 30
0.0
 40
6.22149298766157
100
AcDbArc
 50
158.0969939507942
 51
170.4856136403676
  0
LINE
  5
37A5
330
1B
100
AcDbEntity
 67
     1
  8
Defpoints
370
    13
100
AcDbLine
 10
314.5912530191282
 20
-4.035076843573847
 30
0.0
 11
313.2758818795699
 21
-4.035076843573847
 31
0.0
  0
LINE
  5
37A6
330
1B
100
AcDbEntity
 67
     1
  8
Defpoints
370
    13
100
AcDbLine
 10
312.0968022137215
 20
-4.035076843573847
 30
0.0
 11
312.8063922284703
 21
-5.787236075104999
 31
0.0
  0
LINE
  5
37A7
330
1B
100
AcDbEntity
 67
     1
  8
Defpoints
370
    13
100
AcDbLine
 10
312.0968022137215
 20
-4.035076843573847
 30
0.0
 11
310.8356163664554
 21
-4.035076843573847
 31
0.0
  0
LINE
  5
37A8
330
1B
100
AcDbEntity
 67
     1
  8
Defpoints
370
    13
100
AcDbLine
 10
312.8063922284703
 20
-5.787236075104999
 30
0.0
 11
313.2758818795699
 21
-4.035076843573847
 31
0.0
  0
ARC
  5
37A9
330
1B
100
AcDbEntity
 67
     1
  8
Defpoints
370
    13
100
AcDbCircle
 10
316.0867981829901
 20
-0.6231702804805082
 30
0.0
 40
7.119253077153191
100
AcDbArc
 50
262.0635437036931
 51
268.3423749580197
  0
LINE
  5
37AA
330
1B
100
AcDbEntity
 67
     1
  8
Defpoints
370
    13
100
AcDbLine
 10
317.7077414958478
 20
-7.73944414516518
 30
0.0
 11
315.8808596985594
 21
-7.73944414516518
 31
0.0
  0
ARC
  5
37AB
330
1B
100
AcDbEntity
 67
     1
  8
Defpoints
370
    13
100
AcDbCircle
 10
316.1222668180777
 20
-6.560030949430654
 30
0.0
 40
0.4602051876992975
100
AcDbArc
 50
270.0
 51
334.2263645027491
  0
LINE
  5
37AC
330
1B
100
AcDbEntity
 67
     1
  8
Defpoints
370
    13
100
AcDbLine
 10
316.0805765962419
 20
-7.020236137130154
 30
0.0
 11
316.1222668180777
 21
-7.020236137130154
 31
0.0
  0
ARC
  5
37AD
330
1B
100
AcDbEntity
 67
     1
  8
Defpoints
100
AcDbCircle
 10
316.8824474929862
 20
-6.588931175916968
 30
0.0
 40
1.150512969248243
100
AcDbArc
 50
270.0
 51
270.0
  0
LINE
  5
37AE
330
1B
100
AcDbEntity
 67
     1
  8
Defpoints
370
    13
100
AcDbLine
 10
312.3246260518927
 20
-7.73944414516518
 30
0.0
 11
313.5986707921985
 21
-7.73944414516518
 31
0.0
  0
LINE
  5
37AF
330
1B
100
AcDbEntity
 67
     1
  8
Defpoints
370
    13
100
AcDbLine
 10
313.5986707921985
 20
-7.73944414516518
 30
0.0
 11
314.5912530191282
 21
-4.035076843573847
 31
0.0
  0
LINE
  5
37B0
330
1B
100
AcDbEntity
 67
     1
  8
Defpoints
370
    13
100
AcDbLine
 10
311.6174907454435
 20
-5.978308909324027
 30
0.0
 11
311.1455959812378
 21
-7.73944414516518
 31
0.0
  0
LINE
  5
37B1
330
1B
100
AcDbEntity
 67
     1
  8
Defpoints
370
    13
100
AcDbLine
 10
312.3246260518927
 20
-7.73944414516518
 30
0.0
 11
311.6174907454435
 21
-5.978308909324027
 31
0.0
  0
ARC
  5
37B2
330
1B
100
AcDbEntity
 67
     1
  8
Defpoints
370
    13
100
AcDbCircle
 10
315.2361896796144
 20
-6.724656179496548
 30
0.0
 40
0.9587608077068694
100
AcDbArc
 50
171.0200151799534
 51
262.0635437036931
  0
ARC
  5
37B3
330
1B
100
AcDbEntity
 67
     1
  8
Defpoints
370
    13
100
AcDbCircle
 10
315.2553615315024
 20
-6.141444575968819
 30
0.0
 40
1.422878199650913
100
AcDbArc
 50
334.2263645027383
 51
11.71383119333059
  0
ARC
  5
37B4
330
1B
100
AcDbEntity
 67
     1
  8
Defpoints
370
    13
100
AcDbCircle
 10
316.0805765962419
 20
-6.636731814047379
 30
0.0
 40
0.3835043230827479
100
AcDbArc
 50
171.2985646492635
 51
270.0
  0
LINE
  5
37B5
330
1B
100
AcDbEntity
 67
     1
  8
Defpoints
370
    13
100
AcDbLine
 10
318.4693715257655
 20
-5.119867846630597
 30
0.0
 11
318.7333252480293
 21
-4.126602117406889
 31
0.0
  0
TEXT
  5
37B6
330
1B
100
AcDbEntity
 67
     1
  8
RAHMEN025
 48
1.5
100
AcDbText
 10
302.9089025490978
 20
14.75028190609941
 30
0.0
 40
2.5
  1
Hornung
 41
0.8
  7
Stil1
100
AcDbText
  0
TEXT
  5
37B7
330
1B
100
AcDbEntity
 67
     1
  8
RAHMEN025
100
AcDbText
 10
305.7959483028086
 20
19.08840441083475
 30
0.0
 40
2.5
  1
Name
  7
ISO Proportional
100
AcDbText
  0
TEXT
  5
37B8
330
1B
100
AcDbEntity
 67
     1
  8
RAHMEN025
100
AcDbText
 10
372.3488860539116
 20
35.02590441083475
 30
0.0
 40
2.5
  1
Gewicht:
  7
ISO Proportional
100
AcDbText
  0
LINE
  5
37B9
330
1B
100
AcDbEntity
 67
     1
  8
RAHMEN025
100
AcDbLine
 10
371.2226261514202
 20
39.46340441083469
 30
0.0
 11
371.2226261514202
 21
33.08840441083475
 31
0.0
  0
TEXT
  5
37BA
330
1B
100
AcDbEntity
 67
     1
  8
RAHMEN025
 48
1.5
100
AcDbText
 10
388.0450739785045
 20
35.00916605344844
 30
0.0
 40
2.5
  1
ca. 37 kg
 41
0.8
  7
Stil1
100
AcDbText
  0
TEXT
  5
37BB
330
1B
100
AcDbEntity
 67
     1
  8
RAHMEN025
 48
1.5
100
AcDbText
 10
342.0750479009623
 20
35.00916605344844
 30
0.0
 40
2.5
  1
1:1
 41
0.8
  7
Stil1
100
AcDbText
  0
TEXT
  5
37BC
330
1B
100
AcDbEntity
 67
     1
  8
RAHMEN05
 48
1.5
100
AcDbText
 10
336.6970323475537
 20
8.053829538879313
 30
0.0
 40
5.0
  1
Rüttler RV 95
 41
0.7
  7
Stil1
100
AcDbText
  0
TEXT
  5
37BD
330
1B
100
AcDbEntity
 67
     1
  8
RAHMEN025
100
AcDbText
 10
395.5310856425425
 20
-2.154401139071524
 30
0.0
 40
2.5
  1
Blatt
  7
ISO Proportional
100
AcDbText
  0
TEXT
  5
37BE
330
1B
100
AcDbEntity
 67
     1
  8
RAHMEN025
100
AcDbText
 10
395.534885634742
 20
-10.53080475361133
 30
0.0
 40
2.5
  1
Blätter
  7
ISO Proportional
100
AcDbText
  0
LINE
  5
37BF
330
1B
100
AcDbEntity
 67
     1
  8
RAHMEN025
100
AcDbLine
 10
394.6226261514199
 20
-7.286595589165244
 30
0.0
 11
407.6226261514199
 21
-7.286595589165244
 31
0.0
  0
LINE
  5
37C0
330
1B
100
AcDbEntity
 67
     1
  8
RAHMEN025
100
AcDbLine
 10
394.6226261514201
 20
1.213404410834698
 30
0.0
 11
394.6226261514201
 21
-11.53659558916524
 31
0.0
  0
TEXT
  5
37C1
330
1B
100
AcDbEntity
 67
     1
  8
RAHMEN025
100
AcDbText
 10
365.0993261954127
 20
-14.91159558916524
 30
0.0
 40
2.5
  1
Ersatz durch:
  7
ISO Proportional
100
AcDbText
  0
LINE
  5
37C2
330
1B
100
AcDbEntity
 67
     1
  8
RAHMEN025
100
AcDbLine
 10
363.42262615142
 20
-11.53659558916524
 30
0.0
 11
363.42262615142
 21
-15.78659558916536
 31
0.0
  0
TEXT
  5
37C3
330
1B
100
AcDbEntity
 67
     1
  8
RAHMEN05
 48
1.5
100
AcDbText
 10
345.2934038774672
 20
-7.745728939312357
 30
0.0
 40
5.0
  1
514037
 41
0.8
  7
Stil1
100
AcDbText
  0
LINE
  5
37C5
330
1B
100
AcDbEntity
 67
     1
  8
RAHMEN025
100
AcDbLine
 10
-7.377373848580077
 20
-20.78659558916524
 30
0.0
 11
412.6226261514199
 21
-20.78659558916524
 31
0.0
  0
LINE
  5
37C6
330
1B
100
AcDbEntity
 67
     1
  8
RAHMEN07
100
AcDbLine
 10
10.42262615142021
 20
-15.78659558916524
 30
0.0
 11
407.6226261514199
 21
-15.78659558916524
 31
0.0
  0
LINE
  5
37C7
330
1B
100
AcDbEntity
 67
     1
  8
RAHMEN025
100
AcDbLine
 10
-7.377373848580077
 20
276.2134044108346
 30
0.0
 11
-7.377373848580077
 21
-20.78659558916524
 31
0.0
  0
LINE
  5
37C8
330
1B
100
AcDbEntity
 67
     1
  8
RAHMEN07
100
AcDbLine
 10
10.42262615142021
 20
-15.78659558916524
 30
0.0
 11
10.42262615142021
 21
271.2134044108347
 31
0.0
  0
ENDSEC
  0
SECTION
  2
OBJECTS
  0
DICTIONARY
  5
C
330
0
100
AcDbDictionary
281
     1
  3
ACAD_GROUP
350
D
  3
ACAD_IMAGE_VARS
350
3A28
  3
ACAD_LAYOUT
350
1A
  3
ACAD_MLINESTYLE
350
17
  3
ACAD_PLOTSETTINGS
350
19
  3
ACAD_PLOTSTYLENAME
350
E
  3
ACAD_SCALELIST
350
39E3
  3
AcDbVariableDictionary
350
72E
  3
APPDATA
350
3A26
  3
DWGPROPS
350
3A2A
  0
DICTIONARY
  5
4F8
330
2
100
AcDbDictionary
280
     1
281
     1
  3
ACAD_LAYERFILTERS
360
4F9
  3
ACAD_LAYERSTATES
360
35A5
  0
DICTIONARY
  5
D
102
{ACAD_REACTORS
330
C
102
}
330
C
100
AcDbDictionary
281
     1
  0
RASTERVARIABLES
  5
3A28
102
{ACAD_REACTORS
330
C
102
}
330
C
100
AcDbRasterVariables
 90
        0
 70
     1
 71
     1
 72
     1
  0
DICTIONARY
  5
1A
102
{ACAD_REACTORS
330
C
102
}
330
C
100
AcDbDictionary
281
     1
  3
Layout1
350
1E
  3
Model
350
22
  0
DICTIONARY
  5
17
102
{ACAD_REACTORS
330
C
102
}
330
C
100
AcDbDictionary
281
     1
  3
Standard
350
18
  0
DICTIONARY
  5
19
102
{ACAD_REACTORS
330
C
102
}
330
C
100
AcDbDictionary
281
     1
  0
ACDBDICTIONARYWDFLT
  5
E
102
{ACAD_REACTORS
330
C
102
}
330
C
100
AcDbDictionary
281
     1
  3
Normal
350
F
100
AcDbDictionaryWithDefault
340
F
  0
DICTIONARY
  5
39E3
102
{ACAD_REACTORS
330
C
102
}
330
C
100
AcDbDictionary
281
     1
  3
A0
350
39E4
  3
A1
350
39E5
  3
A2
350
39E6
  3
A3
350
39E7
  3
A4
350
39E8
  3
A5
350
39E9
  3
A6
350
39EA
  3
A7
350
39EB
  3
A8
350
39EC
  3
A9
350
39ED
  3
B0
350
39EE
  3
B1
350
39EF
  3
B2
350
39F0
  3
B3
350
39F1
  3
B4
350
39F2
  3
B5
350
39F3
  3
B6
350
39F4
  3
B7
350
39F5
  3
B8
350
39F6
  3
B9
350
39F7
  3
C0
350
39F8
  3
C1
350
39F9
  3
C2
350
39FA
  3
C3
350
39FB
  3
C4
350
39FC
  3
C5
350
39FD
  3
C6
350
39FE
  3
C7
350
39FF
  3
C8
350
3A00
  3
C9
350
3A01
  3
D0
350
3A02
  3
D1
350
3A03
  3
D2
350
3A04
  0
DICTIONARY
  5
72E
102
{ACAD_REACTORS
330
C
102
}
330
C
100
AcDbDictionary
281
     1
  3
DIMASSOC
350
730
  3
HIDETEXT
350
72F
  0
DICTIONARY
  5
3A26
102
{ACAD_REACTORS
330
C
102
}
330
C
100
AcDbDictionary
281
     1
  0
XRECORD
  5
3A2A
102
{ACAD_REACTORS
330
C
102
}
330
C
100
AcDbXrecord
280
     1
  1
DWGPROPS COOKIE
  2

  3

  4

  6

  7

  8
theodor.kuschma
  9

300
=
301
=
302
=
303
=
304
=
305
=
306
=
307
=
308
=
309
=
 40
0.0
 41
2453811.531928761
 42
2456967.32713794
  1

 90
        0
  0
DICTIONARY
  5
4F9
102
{ACAD_REACTORS
330
4F8
102
}
330
4F8
100
AcDbDictionary
280
     1
281
     1
  3
025
360
3597
  3
035
360
3598
  3
050
360
3599
  3
070
360
359A
  3
mmMC
360
359B
  3
mmRS
360
359C
  3
mmTxt
360
359D
  3
XREF UIT
360
359E
  3
XREFOUT
360
359F
  0
DICTIONARY
  5
35A5
102
{ACAD_REACTORS
330
4F8
102
}
330
4F8
100
AcDbDictionary
281
     1
  0
LAYOUT
  5
1E
102
{ACAD_REACTORS
330
1A
102
}
330
1A
100
AcDbPlotSettings
  1

  2
DesignJet 600 C2847A.pc3
  4
ISO_A3_(420.00_x_297.00_MM)
  6

 40
5.793749809265136
 41
17.79375076293945
 42
5.79376220703125
 43
17.79376220703125
 44
420.0
 45
297.0
 46
0.0
 47
0.0
 48
0.0
 49
0.0
140
0.0
141
0.0
142
1.0
143
1.0
 70
   688
 72
     1
 73
     0
 74
     5
  7

 75
     0
147
1.0
148
0.0
149
0.0
100
AcDbLayout
  1
Layout1
 70
     0
 71
     1
 10
-5.793749809265136
 20
-17.79375076293945
 11
414.2062501907349
 21
279.2062492370605
 12
0.0
 22
0.0
 32
0.0
 14
-7.377373848580077
 24
-20.78659558916524
 34
0.0
 15
412.6226261514199
 25
276.2134044108346
 35
0.0
146
0.0
 13
0.0
 23
0.0
 33
0.0
 16
1.0
 26
0.0
 36
0.0
 17
0.0
 27
1.0
 37
0.0
 76
     0
330
1B
331
3594
  0
LAYOUT
  5
22
102
{ACAD_REACTORS
330
1A
102
}
330
1A
100
AcDbPlotSettings
  1

  2
PDFCreator
  4
A4
  6

 40
3.174999952316284
 41
3.174999952316284
 42
3.175003051757812
 43
3.17498779296875
 44
209.9098358154297
 45
297.0318298339843
 46
0.0
 47
0.0
 48
-1157.333112244772
 49
-1150.826527708814
140
1106.594601707887
141
724.3445614516659
142
1.0
143
9.21189147811028
 70
 11952
 72
     1
 73
     1
 74
     4
  7

 75
     0
147
0.1085553387571104
148
1157.333112244772
149
1150.826527708814
100
AcDbLayout
  1
Model
 70
     1
 71
     0
 10
0.0
 20
0.0
 11
12.0
 21
9.0
 12
0.0
 22
0.0
 32
0.0
 14
0.0
 24
0.0
 34
0.0
 15
0.0
 25
0.0
 35
0.0
146
0.0
 13
0.0
 23
0.0
 33
0.0
 16
1.0
 26
0.0
 36
0.0
 17
0.0
 27
1.0
 37
0.0
 76
     0
330
1F
331
39B9
  0
MLINESTYLE
  5
18
102
{ACAD_REACTORS
330
17
102
}
330
17
100
AcDbMlineStyle
  2
STANDARD
 70
     0
  3

 62
   256
 51
90.0
 52
90.0
 71
     2
 49
0.5
 62
   256
  6
BYLAYER
 49
-0.5
 62
   256
  6
BYLAYER
  0
ACDBPLACEHOLDER
  5
F
102
{ACAD_REACTORS
330
E
102
}
330
E
  0
SCALE
  5
39E4
102
{ACAD_REACTORS
330
39E3
102
}
330
39E3
100
AcDbScale
 70
     0
300
1:1
140
1.0
141
1.0
290
     1
  0
SCALE
  5
39E5
102
{ACAD_REACTORS
330
39E3
102
}
330
39E3
100
AcDbScale
 70
     0
300
1:2
140
1.0
141
2.0
290
     0
  0
SCALE
  5
39E6
102
{ACAD_REACTORS
330
39E3
102
}
330
39E3
100
AcDbScale
 70
     0
300
1:4
140
1.0
141
4.0
290
     0
  0
SCALE
  5
39E7
102
{ACAD_REACTORS
330
39E3
102
}
330
39E3
100
AcDbScale
 70
     0
300
1:5
140
1.0
141
5.0
290
     0
  0
SCALE
  5
39E8
102
{ACAD_REACTORS
330
39E3
102
}
330
39E3
100
AcDbScale
 70
     0
300
1:8
140
1.0
141
8.0
290
     0
  0
SCALE
  5
39E9
102
{ACAD_REACTORS
330
39E3
102
}
330
39E3
100
AcDbScale
 70
     0
300
1:10
140
1.0
141
10.0
290
     0
  0
SCALE
  5
39EA
102
{ACAD_REACTORS
330
39E3
102
}
330
39E3
100
AcDbScale
 70
     0
300
1:16
140
1.0
141
16.0
290
     0
  0
SCALE
  5
39EB
102
{ACAD_REACTORS
330
39E3
102
}
330
39E3
100
AcDbScale
 70
     0
300
1:20
140
1.0
141
20.0
290
     0
  0
SCALE
  5
39EC
102
{ACAD_REACTORS
330
39E3
102
}
330
39E3
100
AcDbScale
 70
     0
300
1:30
140
1.0
141
30.0
290
     0
  0
SCALE
  5
39ED
102
{ACAD_REACTORS
330
39E3
102
}
330
39E3
100
AcDbScale
 70
     0
300
1:40
140
1.0
141
40.0
290
     0
  0
SCALE
  5
39EE
102
{ACAD_REACTORS
330
39E3
102
}
330
39E3
100
AcDbScale
 70
     0
300
1:50
140
1.0
141
50.0
290
     0
  0
SCALE
  5
39EF
102
{ACAD_REACTORS
330
39E3
102
}
330
39E3
100
AcDbScale
 70
     0
300
1:100
140
1.0
141
100.0
290
     0
  0
SCALE
  5
39F0
102
{ACAD_REACTORS
330
39E3
102
}
330
39E3
100
AcDbScale
 70
     0
300
2:1
140
2.0
141
1.0
290
     0
  0
SCALE
  5
39F1
102
{ACAD_REACTORS
330
39E3
102
}
330
39E3
100
AcDbScale
 70
     0
300
4:1
140
4.0
141
1.0
290
     0
  0
SCALE
  5
39F2
102
{ACAD_REACTORS
330
39E3
102
}
330
39E3
100
AcDbScale
 70
     0
300
8:1
140
8.0
141
1.0
290
     0
  0
SCALE
  5
39F3
102
{ACAD_REACTORS
330
39E3
102
}
330
39E3
100
AcDbScale
 70
     0
300
10:1
140
10.0
141
1.0
290
     0
  0
SCALE
  5
39F4
102
{ACAD_REACTORS
330
39E3
102
}
330
39E3
100
AcDbScale
 70
     0
300
100:1
140
100.0
141
1.0
290
     0
  0
SCALE
  5
39F5
102
{ACAD_REACTORS
330
39E3
102
}
330
39E3
100
AcDbScale
 70
     0
300
1/128" = 1'-0"
140
0.0078125
141
12.0
290
     0
  0
SCALE
  5
39F6
102
{ACAD_REACTORS
330
39E3
102
}
330
39E3
100
AcDbScale
 70
     0
300
1/64" = 1'-0"
140
0.015625
141
12.0
290
     0
  0
SCALE
  5
39F7
102
{ACAD_REACTORS
330
39E3
102
}
330
39E3
100
AcDbScale
 70
     0
300
1/32" = 1'-0"
140
0.03125
141
12.0
290
     0
  0
SCALE
  5
39F8
102
{ACAD_REACTORS
330
39E3
102
}
330
39E3
100
AcDbScale
 70
     0
300
1/16" = 1'-0"
140
0.0625
141
12.0
290
     0
  0
SCALE
  5
39F9
102
{ACAD_REACTORS
330
39E3
102
}
330
39E3
100
AcDbScale
 70
     0
300
3/32" = 1'-0"
140
0.09375
141
12.0
290
     0
  0
SCALE
  5
39FA
102
{ACAD_REACTORS
330
39E3
102
}
330
39E3
100
AcDbScale
 70
     0
300
1/8" = 1'-0"
140
0.125
141
12.0
290
     0
  0
SCALE
  5
39FB
102
{ACAD_REACTORS
330
39E3
102
}
330
39E3
100
AcDbScale
 70
     0
300
3/16" = 1'-0"
140
0.1875
141
12.0
290
     0
  0
SCALE
  5
39FC
102
{ACAD_REACTORS
330
39E3
102
}
330
39E3
100
AcDbScale
 70
     0
300
1/4" = 1'-0"
140
0.25
141
12.0
290
     0
  0
SCALE
  5
39FD
102
{ACAD_REACTORS
330
39E3
102
}
330
39E3
100
AcDbScale
 70
     0
300
3/8" = 1'-0"
140
0.375
141
12.0
290
     0
  0
SCALE
  5
39FE
102
{ACAD_REACTORS
330
39E3
102
}
330
39E3
100
AcDbScale
 70
     0
300
1/2" = 1'-0"
140
0.5
141
12.0
290
     0
  0
SCALE
  5
39FF
102
{ACAD_REACTORS
330
39E3
102
}
330
39E3
100
AcDbScale
 70
     0
300
3/4" = 1'-0"
140
0.75
141
12.0
290
     0
  0
SCALE
  5
3A00
102
{ACAD_REACTORS
330
39E3
102
}
330
39E3
100
AcDbScale
 70
     0
300
1" = 1'-0"
140
1.0
141
12.0
290
     0
  0
SCALE
  5
3A01
102
{ACAD_REACTORS
330
39E3
102
}
330
39E3
100
AcDbScale
 70
     0
300
1-1/2" = 1'-0"
140
1.5
141
12.0
290
     0
  0
SCALE
  5
3A02
102
{ACAD_REACTORS
330
39E3
102
}
330
39E3
100
AcDbScale
 70
     0
300
3" = 1'-0"
140
3.0
141
12.0
290
     0
  0
SCALE
  5
3A03
102
{ACAD_REACTORS
330
39E3
102
}
330
39E3
100
AcDbScale
 70
     0
300
6" = 1'-0"
140
6.0
141
12.0
290
     0
  0
SCALE
  5
3A04
102
{ACAD_REACTORS
330
39E3
102
}
330
39E3
100
AcDbScale
 70
     0
300
1'-0" = 1'-0"
140
12.0
141
12.0
290
     0
  0
DICTIONARYVAR
  5
730
102
{ACAD_REACTORS
330
72E
102
}
330
72E
100
DictionaryVariables
280
     0
  1
2
  0
DICTIONARYVAR
  5
72F
102
{ACAD_REACTORS
330
72E
102
}
330
72E
100
DictionaryVariables
280
     0
  1
1
  0
XRECORD
  5
3597
102
{ACAD_REACTORS
330
4F9
102
}
330
4F9
100
AcDbXrecord
280
     1
  1
025
  1
*_025
  1
*
  1
*
 70
     0
  1
*
  1
*
  0
XRECORD
  5
3598
102
{ACAD_REACTORS
330
4F9
102
}
330
4F9
100
AcDbXrecord
280
     1
  1
035
  1
*_035
  1
*
  1
*
 70
     0
  1
*
  1
*
  0
XRECORD
  5
3599
102
{ACAD_REACTORS
330
4F9
102
}
330
4F9
100
AcDbXrecord
280
     1
  1
050
  1
*_050
  1
*
  1
*
 70
     0
  1
*
  1
*
  0
XRECORD
  5
359A
102
{ACAD_REACTORS
330
4F9
102
}
330
4F9
100
AcDbXrecord
280
     1
  1
070
  1
*_070
  1
*
  1
*
 70
     0
  1
*
  1
*
  0
XRECORD
  5
359B
102
{ACAD_REACTORS
330
4F9
102
}
330
4F9
100
AcDbXrecord
280
     1
  1
mmMC
  1
MC_*
  1
*
  1
*
 70
     0
  1
*
  1
*
  0
XRECORD
  5
359C
102
{ACAD_REACTORS
330
4F9
102
}
330
4F9
100
AcDbXrecord
280
     1
  1
mmRS
  1
MM_4*
  1
*
  1
*
 70
     0
  1
*
  1
*
  0
XRECORD
  5
359D
102
{ACAD_REACTORS
330
4F9
102
}
330
4F9
100
AcDbXrecord
280
     1
  1
mmTxt
  1
MM_8*
  1
*
  1
*
 70
     0
  1
*
  1
*
  0
XRECORD
  5
359E
102
{ACAD_REACTORS
330
4F9
102
}
330
4F9
100
AcDbXrecord
280
     1
  1
XREF UIT
  1
~*|*
  1
*
  1
*
 70
     0
  1
*
  1
*
  0
XRECORD
  5
359F
102
{ACAD_REACTORS
330
4F9
102
}
330
4F9
100
AcDbXrecord
280
     1
  1
XREFOUT
  1
~*|*
  1
*
  1
*
 70
     0
  1
*
  1
*
  0
ENDSEC
  0
EOF
